Search tabs and chords

Search for song, artist or band

Log in

One click and you are in

Login with Facebook Login with Google

Why sign up and log in

Guitar Tabs Explorer
Alabama Shakes guitar tabs for Dont wanna fight

Guitar tabs with lyrics

-------------------------------------------------------------------------------
                             DON'T WANNA FIGHT - Alabama Shakes
-------------------------------------------------------------------------------
Tabbed by: emilym80
E chord diagramEE-mail: emilym80@hotmail.com

I've tabbed both Brittany and Heath's parts for the song. I think they play tuned
a half-step down, but I've tabbed it in standard.

Intro:
Brittany riff (same as verse)
e|---------------------------------------------------------------------------|
B|---------------------------------------------------------------------------|
G|---------------------------------------------------------------------------|
D|---------------------------------------------------------------------------|
A|---------------------------------------------------------------------------|
E|-44x-4x-4x-4x-4-6x-6-------------------------------------------------------|

Brittany first ending:
e|---------------------------------------------------------------------------|
B|---------------------------------------------------------------------------|
G|---------------------------------------------------------------------------|
D|---------------------------------------------------------------------------|
A|---------------------4-----------------------------------------------------|
E|-44x-4x-4x-4x-4-6x-6-------------------------------------------------------|

Brittany second ending:
e|---------------------------------------------------------------------------|
B|--------------11---11------------------------------------------------------|
G|--------------11---11------------------------------------------------------|
D|--------------11---11------------------------------------------------------|
A|-----------------9---------------------------------------------------------|
E|-44x-4x-4x-6---------------------------------------------------------------|

Brittany intro solo/chorus part:
e|--------13----13-------14-13\--------------------6--8--8h9--6---------------|
B|-11-----11---x---10/11---------6-----------6--6--7--7--7----6---------------|
G|-11-----x---x----10/11---------6--6---6-3--6--6--8--8--8----6---------------|
D|-13---x------------------------8--------3--6--6-------------8---------------|
A|-----x------------------------------4---1-----------------------------------|
E|----------------------------------------------------------------------------|

Brittany first verse part one:
e|---------------------------------------------------------------------------|
B|---------------------------------------------------------------------------|
G|---------------------------------------------------------------------------|
D|---------------------------------------------------------------------------|
A|-44x-4x-4x-4-4x-----44x-4x-4x-4-4x-----------------------------------------|
E|---------------6x-6x--------------6x-6x------------------------------------|

Brittany first verse part two:
e|---------------------------------------------------------------------------|
B|---------------------------------------------------------------------------|
G|---------------------------------------------------------------------------|
D|---------------------------------------------------------------------------|
A|---------------------------------------------------------------------------|
E|-44x-4x-4x-4x-4-6x-6x-44x-4x-4x-4x-4-6x-6x---------------------------------|

Brittany second verse part one:
e|---------------------------------------------------------------------------|
B|---------------------------------------------------------------------------|
G|---------------------------------------------------------------------------|
D|---------------------------------------------------------------------------|
A|---------------------------------------------------------------------------|
E|-44x-4x-4x-4x-4-6x-6x------------------------------------------------------|

Brittany second verse part one ending:
e|-6\------------------------------------------------------------------------|
B|-6\------------------------------------------------------------------------|
G|-6\------------------------------------------------------------------------|
D|-8\------------------------------------------------------------------------|
A|---------------------------------------------------------------------------|
E|---------------------------------------------------------------------------|

Brittany second verse second part:
e|-------6---------------8--6p5h6-6---6--------------------------------------|
B|-4--4--6--6\----4--4---8--------4------------------------------------------|
G|-3--3--6--6\----3--3---8---------------------------------------------------|
D|-4-----8--8\----4--4---6----------4----------------------------------------|
A|---------------------------------------------------------------------------|
E|---------------------------------------------------------------------------|

Repeat chorus (second verse is a variation on the first)

Interlude is a combination of the verse chords and this lead part:
e|---------------------------------------------------------------------------|
B|-------11-13-14b16---------11-13-9b11--------------------------------------|
G|-10h13---------------10h13-------------------------------------------------|
D|---------------------------------------------------------------------------|
A|---------------------------------------------------------------------------|
E|---------------------------------------------------------------------------|

Here are Heath's parts, they are much more straightforward:

Intro (this is also the chorus etc part):
e|---------------------------------------------------------------------------|
B|---------------------------------------------------------------------------|
G|---------------------------------------------------------------------------|
D|---------------------------------------------------------------------------|
A|-88-8-8-8-8-6-6-88-8-8-8-8-6-6--44-4-4-4-4-4-----44-4-4-4-4----------------|
E|---------------------------------------------6-6------------6-6------------|

Verse:
e|---------6--------6---------6-------6--------------------------------------|
B|-7/9--7--7--7/9---7--6h7-6--6--6h7--6--------------------------------------|
G|-8/10-8--8--8/10--8--6h8-6--6--6h8--6--------------------------------------|
D|---------------------------------------------------------------------------|
A|---------------------------------------------------------------------------|
E|---------------------------------------------------------------------------|

Verse ending lick

e|----13---------------------------------------------------------------------|
B|----14---------------------------------------------------------------------|
G|-6/-15---------------------------------------------------------------------|
D|---------------------------------------------------------------------------|
A|---------------------------------------------------------------------------|
E|---------------------------------------------------------------------------|

And that's it.

************************************

| /   slide up
| \   slide down
| h   hammer-on
| p   pull-off
| ~   vibrato
| +   harmonic
| x   Mute note
| b   Bend
| pb  Pre-bend
| br  Bend release
| pbr Pre-bend release
| brb Bend release bend

Other versions of Don't Wanna Fight

Don't wanna fightChords

Almost there ...

Sign in to get your own page with links to favourite songs and more. You are just one click away...

Login with Facebook Login with Google