Search tabs and chords

Search for song, artist or band

Log in

One click and you are in

Login with Facebook Login with Google

Why sign up and log in

Guitar Tabs Explorer
Alabama Shakes bass tabs for Dont wanna fight

Don't Wanna Fight bass tab by Alabama Shakes

Alabama Shakes bass tabs for Dont wanna fight

Bass tabs with lyrics

-------------------------------------------------------------------------------
                             Don't Wanna Fight - Alabama Shakes
-------------------------------------------------------------------------------
Title: Don't Wanna Fight
Album: Sound & Color
Tabber: John Sherk
Tempo = 100
bass

Legend
x - dead note
h - hammer on/pull off
s - slide
g - ghost note
. - staccato

Note:  He usually uses a piece of foam at the edge of his bridge that mutes the strings
for a nice, old-school tone. So if you want it to sound like him, palm mute the whole thing or
get a piece of foam.

Note:  He does slight variations of the same fill on nearly every chorus. Rather than just tabbing the fills
and making you figure out where it goes, I tabbed each chorus
individually and placed each fill in their respective spot.

Note:  Tune Down 1/2 Step

Intro:
No bass for first 8 measures
F#||---------------|----------------|----------------|---------------||
C#||o--------------|----------------|----------------|--------------o||
G#||o--------------|----------------|----------------|--------------o||
D#||---------------|----------------|----------------|---------------||


|----------------|----------------------------|-------|
|----------------|----------------------------|-------|
|--7-------------|--7--------------------9----|-------|
|-----------7----|----------------------------|--7----|

----------------|----------------|----------------------------|-------|
----------------|----------------|----------------------------|-------|
----------------|--7-------------|--7--------------------9----|-------|
--7--------7----|-----------7----|----------------------------|--7----|


----------------------------------------------------|----------|
--------------------------12-------11----9----------|----------|
-----------------------9--------------------9--8----|--7-------|
--7-------------------------------------------------|----------|


Verse:
Repeat as necessary

|--7--------9-----7----------------------------------|
|--------------------9--9----------------------------|
|----------------------------------------------------|
|----------------------------------------------------|


--7--------9-----7----------------------------------|
--------------------9--9----------------------------|
----------------------------------------------------|
----------------------------------------------------|


--7--------9-----7----------------------------------|
--------------------9--7----------------------------|
----------------------------------------------------|
----------------------------------------------------|


--7--------9-----7----------------------------------|
--------------------9--7----------------------------|
----------------------------------------------------|
----------------------------------------------------|

Chorus:


|----------------|
|----------------|
|--7-------------|
|-----------7----|

----------------------------|----------------|----------------|----------------|
----------------------------|----------------|----------------|----------------|
--7--------------------9----|----------------|----------------|--7-------------|
----------------------------|--7--------7----|--7--------7----|-----------7----|


----------------|-------|----------------------------------------------------|
----------------|-------|--------------------------12-------11----9----------|
--7--------9----|-------|-----------------------9--------------------9-------|
----------------|--7----|--7-------------------------------------------------|


Verse 2 is same as Verse 1:

Fill at end of Verse 2 (not in studio version, but sometimes live):


|--7--------9-----7--------7--------6----------------|
|--------------------9--7-----------------9----------|
|--------------------------------------------9--x----|
|----------------------------------------------------|

Chorus:

|----------------|
|----------------|
|--7-------------|
|-----------7----|


----------------------------|-------|----------------|----------------|
----------------------------|-------|----------------|----------------|
--7--------------------9----|-------|----------------|--7-------------|
----------------------------|--7----|--7--------7----|-----------7----|


----------------------------|-------|
----------------------------|-------|
--7--------------------9----|-------|
----------------------------|--7----|


----------------------------------------------------|
--------------------------12-------11----9----------|
-----------------------9--------------------9h-7----|
--7-------------------------------------------------|


Rest on Music Break into Guitar Solo

Guitar Solo:

|----------------------------|----------------------------|
|----------------------------|----------------------------|
|--7-------------------------|--7--------------------9----|
|-----------------------7----|----------------------------|


----------------------------|----------------|----------------------------|
----------------------------|----------------|----------------------------|
----------------------------|-----------2s---|--7-------------------------|
--7--------------------7----|--7-------------|-----------------------7----|


----------------------------------------------------|-------|
--------------------------9h-7-----9-----7----------|-------|
--7--------------------9--------9-----------9-------|-------|
----------------------------------------------------|--7----|


----------------------------------------------------|
--------------------------12h11----9----------------|
-----------------------------------------9--8-------|
--7-------------------------------------------------|


Chorus:

|----------------|
|----------------|
|--7-------------|
|-----------7----|


----------------|-------|----------------------------------------------------|
----------------|-------|--------------------------12h11----9----------------|
--7--------9----|-------|-----------------------9-----------------9--8-------|
----------------|--7----|--7-------------------------------------------------|


----------------|----------------------------|-------|
----------------|----------------------------|-------|
--7-------------|--7--------------------9----|-------|
-----------7----|----------------------------|--7----|


----------------------------------------------------|
--------------------------12-------11----9----------|
-----------------------9--------------------9--8----|
--7-------------------------------------------------|


He?s doing something here a dotted quarter note into each measure. I?m not sure what it is. It could be ghost
notes as I have it, or it could be harmonics, or it could be another
instrument. If you listen real close, you?ll hear what I?m talking about. If you don?t want to figure it out,
just play it like every other chorus.

-----------9g---------------|-----------9g---------------|
-----------xg---------------|-----------xg---------------|
--7-------------------------|--7--------------------9----|
--------------------7-------|----------------------------|


-----------7g---------------|
-----------xg---------------|
----------------------------|
--7-----------------7-------|


--------------------7g------------------------------|
--------------------xg----9h-11----12----9----------|
--------------------------------------------9--8----|
--7-------------------------------------------------|


-----------9g---------------|-----------9g---------------|
-----------xg---------------|-----------xg---------------|
--7-------------------------|--7--------------------9----|
--------------------7-------|----------------------------|


-----------7g---------------|-----------7g---------------|----------------|
-----------xg---------------|-----------xg---------------|----------------|
----------------------------|----------------------------|--7-------------|
--7-------------------------|--7-----------------7-------|-----------7----|


----------------------------|-------||
----------------------------|-------||
--7--------------------9.---|-------||
----------------------------|--7----||

Almost there ...

Sign in to get your own page with links to favourite songs and more. You are just one click away...

Login with Facebook Login with Google