Log in

One click and you are in

Login with Facebook Login with Google

Why sign up and log in

Guitar Tabs Explorer
Akron Family guitar tabs for Love is simple

Guitar tabs

CAPO 2


INTRO
e-----------------------------------]
B-----------------------------------]
G-----------------------------------]   (x2)
D--2--2--2--2--2-------5--5-------3-]
A---3--3--3--0--0----5--5--5----3---]
E------------------3----------1-----]
VERSE 1:
A chord diagramC majorC          A chord diagramA minorAm    A chord diagramG MajorG         A chord diagramFF
Don't be afraid, it's only Love (x4)


CHORUS:
        A chord diagramC majorC      A chord diagramA minorAm     A chord diagramG MajorG     A chord diagramFF
Love is Simple


Riff 1:

e 0--3--5--0-------------3----1----]
A chord diagramBB -----------1-----3--5-----1---1--]
G--------------2-------------------]
D----------------------------------]
A----------0-----------------------]
A chord diagramE MajorE 3----------------3--------1------]


VERSE 2: Same as the first.

CHORUS


OUTRO:
A chord diagramA#A#         A chord diagramFF        A chord diagramC majorC
Da da dada da da da da
(repeat for however many times)


NOTE: This may not be exactly how they play it but it at least sounds pretty close, I'm
sure if I've seen them play with a capo, but hey it works.
Enjoy this GREAT SONG!!!!

↓ Add and view comments below ↓

What do you think about this song and these tabs?

Add your comments, questions, rant or a thumbs up below.

Almost there ...

Sign in to get your own page with links to favourite songs and more. You are just one click away...

Login with Facebook Login with Google