Log in

One click and you are in

Login with Facebook Login with Google

Why sign up and log in

Guitar Tabs Explorer
Ajr guitar tabs for Dear winter

Guitar tabs with lyrics

Tuning: Standard (E A D G B E)

Chords used:
    A chord diagramFF       A chord diagramG MajorG       A chord diagramC majorC       A chord diagramA minorAm      A chord diagramG6G6      F/F#    G/G#    A chord diagramF minorFm
e|--1-------3-------0-------0-------0-------1-------3-------1----------------|
B|--1-------3-------1-------1-------0-------1-------3-------1----------------|
G|--2-------4-------0-------2-------0-------2-------4-------1----------------|
D|--3-------5-------2-------2-------2-------3-------5-------3----------------|
A|--3-------5-------3-------0-------2-------3-------5-------3----------------|
E|--1-------3-----------------------3-------2-------4-------1----------------|
AJR - Dear Winter


Verse 1:

    Dear Winter, I hope you like your name
    A chord diagramFF           A chord diagramG MajorG           A chord diagramC majorC
e|------------------------------------0--------------------------------------|
B|--1-----1-----3-----3-----1-----1-----1------------------------------------|
G|----2-----------4-----------0-----------0----------------------------------|
D|------------------------------2---2-------2--------------------------------|
A|--3-----------5-----------3------------------------------------------------|
E|------1---1-------3---3----------------------------------------------------|

    I hope they don't make fun of you when you grow up and go to school, okay?
    A chord diagramFF           A chord diagramG MajorG           A chord diagramFF           A chord diagramG MajorG           A chord diagramA minorAm             A chord diagramG6G6
e|--------------------------------------------------0----------0---0---------|
B|--1-----1-----3-----3-----1-----1-----3-----3-------1-----1--1---0---------|
G|----2-----------4-----------2-----------4---------------2----2---0---------|
D|-------------------------------------------------------------2---2---------|
A|--3-----------5-----------3-----------5-----------0---0------0---2---------|
E|------1---1-------3---3-------1---1-------3---3------------------3---------|

    'Cause Winter is a badass name.
    A chord diagramFF           A chord diagramG MajorG           A chord diagramC majorC
e|----------------------------------0----------------------------------------|
B|--1-----1-----3-----3-----1---------1--------------------------------------|
G|----2-----------4-----------0----------------------------------------------|
D|------------------------------2--------------------------------------------|
A|--3-----------5-----------3-----3---3--------------------------------------|
E|------1---1-------3---3----------------------------------------------------|

    Dear Winter, I hope you talk to girls
    A chord diagramFF           A chord diagramG MajorG           A chord diagramC majorC
e|------------------------------------0--------------------------------------|
B|--1-----1-----3-----3-----1-----1-----1------------------------------------|
G|----2-----------4-----------0-----------0----------------------------------|
D|------------------------------2---2-------2--------------------------------|
A|--3-----------5-----------3------------------------------------------------|
E|------1---1-------3---3----------------------------------------------------|

    Or boys, or anyone you like, I just hope you don't stay in every night
    A chord diagramFF           A chord diagramG MajorG           A chord diagramFF           A chord diagramG MajorG           A chord diagramA minorAm             A chord diagramG6G6
e|--------------------------------------------------0----------0---0---------|
B|--1-----1-----3-----3-----1-----1-----3-----3-------1-----1--1---0---------|
G|----2-----------4-----------2-----------4---------------2----2---0---------|
D|-------------------------------------------------------------2---2---------|
A|--3-----------5-----------3-----------5-----------0---0------0---2---------|
E|------1---1-------3---3-------1---1-------3---3------------------3---------|

    'Cause I wish I was out tonight.
    A chord diagramFF           A chord diagramG MajorG           A chord diagramC majorC
e|----------------------------------0----------------------------------------|
B|--1-----1-----3-----3-----1---------1--------------------------------------|
G|----2-----------4-----------0----------------------------------------------|
D|------------------------------2--------------------------------------------|
A|--3-----------5-----------3-----3---3--------------------------------------|
E|------1---1-------3---3----------------------------------------------------|


Chorus:

    Ah-ah-ah-ah-ah-ah
    A chord diagramFF                     A chord diagramG MajorG           A chord diagramC majorC
e|---------------------------------------------------------------------------|
B|--1-----1---------1-----3-----3-----1-----1--------------------------------|
G|----2-------2-2-----------4-----------0------------------------------------|
D|---------------------------------------------------------------------------|
A|------------------------------------3---3---3------------------------------|
E|--1---1---1-1---1---1---3---3---3------------------------------------------|

    It really doesn't seem like there's anyone for me but
    A chord diagramFF             A chord diagramG MajorG
e|---------------------------------------------------------------------------|
B|--1-----1---1---3-----3---3------------------------------------------------|
G|----2-------------4--------------------------------------------------------|
D|---------------------------------------------------------------------------|
A|---------------------------------------------------------------------------|
E|--1---1---1-1---3---3---3-3---0--------------------------------------------|

    Dear Winter, I hope you like your name, I'm hopin' that someday I can meet you on this Earth
    A chord diagramFF           F/F#      A chord diagramG MajorG           G/G#
e|---------------------------------------------------------------------------|
B|--1-----1---------------3-----3-----3-----3--------------------------------|
G|----2---------2-2-2-------4-----------4------------------------------------|
D|---------------------------------------------------------------------------|
A|---------------------------------------------------------------------------|
E|--1---1---1---2-----2---3---3---3---4---4---4------------------------------|

    But shit, I gotta meet your mom first.
    A chord diagramA minorAm         A chord diagramG6G6          A chord diagramFF                   A chord diagramF minorFm  A chord diagramC majorC
e|--0----0-----0---------------------1---------1------------0----------------|
B|----1----------0---0-----------------1-------1----1---------1--------------|
G|-------------------------2-----2-------2-----1------0----------------------|
D|---------------------------3-------------3---3--------2--------------------|
A|--0---0--0-------------------3---3-----------3----3-----3---3--------------|
E|-------------3---3---3---1-------------------1-----------------------------|


Verse 2:

    Dear Winter, I hope you like this song
    A chord diagramFF           A chord diagramG MajorG           A chord diagramC majorC
e|------------------------------------0--------------------------------------|
B|--1-----1-----3-----3-----1-----1-----1------------------------------------|
G|----2-----------4-----------0-----------0----------------------------------|
D|------------------------------2---2-------2--------------------------------|
A|--3-----------5-----------3------------------------------------------------|
E|------1---1-------3---3----------------------------------------------------|

    And even when you're 13 and you scream at me for parenting you wrong,
    A chord diagramFF           A chord diagramG MajorG           A chord diagramFF           A chord diagramG MajorG           A chord diagramA minorAm             A chord diagramG6G6
e|--------------------------------------------------0----------0---0---------|
B|--1-----1-----3-----3-----1-----1-----3-----3-------1-----1--1---0---------|
G|----2-----------4-----------2-----------4---------------2----2---0---------|
D|-------------------------------------------------------------2---2---------|
A|--3-----------5-----------3-----------5-----------0---0------0---2---------|
E|------1---1-------3---3-------1---1-------3---3------------------3---------|

    I hope it's still a badass song.
    A chord diagramFF           A chord diagramG MajorG           A chord diagramC majorC
e|----------------------------------0----------------------------------------|
B|--1-----1-----3-----3-----1---------1--------------------------------------|
G|----2-----------4-----------0----------------------------------------------|
D|------------------------------2--------------------------------------------|
A|--3-----------5-----------3-----3---3--------------------------------------|
E|------1---1-------3---3----------------------------------------------------|


Chorus:

    Ah-ah-ah-ah-ah-ah
    A chord diagramFF                     A chord diagramG MajorG           A chord diagramC majorC
e|---------------------------------------------------------------------------|
B|--1-----1---------1-----3-----3-----1-----1--------------------------------|
G|----2-------2-2-----------4-----------0------------------------------------|
D|---------------------------------------------------------------------------|
A|------------------------------------3---3---3------------------------------|
E|--1---1---1-1---1---1---3---3---3------------------------------------------|

    It really doesn't seem like there's anyone for me but
    A chord diagramFF             A chord diagramG MajorG
e|---------------------------------------------------------------------------|
B|--1-----1---1---3-----3---3------------------------------------------------|
G|----2-------------4--------------------------------------------------------|
D|---------------------------------------------------------------------------|
A|---------------------------------------------------------------------------|
E|--1---1---1-1---3---3---3-3---0--------------------------------------------|

    Dear Winter, I hope you like your name, you know I cannot wait to teach you how to curse
    A chord diagramFF           F/F#      A chord diagramG MajorG           G/G#
e|---------------------------------------------------------------------------|
B|--1-----1---------------3-----3-----3-----3--------------------------------|
G|----2---------2-2-2-------4-----------4------------------------------------|
D|---------------------------------------------------------------------------|
A|---------------------------------------------------------------------------|
E|--1---1---1---2-----2---3---3---3---4---4---4------------------------------|

    But shit, I gotta meet your mom first.
    A chord diagramA minorAm         A chord diagramG6G6          A chord diagramFF                   A chord diagramF minorFm  A chord diagramC majorC
e|--0----0-----0---------------------1---------1------------0----------------|
B|----1----------0---0-----------------1-------1----1---------1--------------|
G|-------------------------2-----2-------2-----1------0----------------------|
D|---------------------------3-------------3---3--------2--------------------|
A|--0---0--0-------------------3---3-----------3----3-----3---3--------------|
E|-------------3---3---3---1-------------------1-----------------------------|


Verse 3:

    Dear Winter, don't move too far away
    A chord diagramFF           A chord diagramG MajorG           A chord diagramC majorC
e|------------------------------------0--------------------------------------|
B|--1-----1-----3-----3-----1-----1-----1------------------------------------|
G|----2-----------4-----------0-----------0----------------------------------|
D|------------------------------2---2-------2--------------------------------|
A|--3-----------5-----------3------------------------------------------------|
E|------1---1-------3---3----------------------------------------------------|

    And please don't say I'm hovering, when I text you to ask about your day
    A chord diagramFF           A chord diagramG MajorG           A chord diagramFF           A chord diagramG MajorG           A chord diagramA minorAm             A chord diagramG6G6
e|--------------------------------------------------0----------0---0---------|
B|--1-----1-----3-----3-----1-----1-----3-----3-------1-----1--1---0---------|
G|----2-----------4-----------2-----------4---------------2----2---0---------|
D|-------------------------------------------------------------2---2---------|
A|--3-----------5-----------3-----------5-----------0---0------0---2---------|
E|------1---1-------3---3-------1---1-------3---3------------------3---------|

    I wanna hear about your day.
    A chord diagramFF           A chord diagramG MajorG           A chord diagramC majorC
e|----------------------------------0----------------------------------------|
B|--1-----1-----3-----3-----1---------1--------------------------------------|
G|----2-----------4-----------0----------------------------------------------|
D|------------------------------2--------------------------------------------|
A|--3-----------5-----------3-----3---3--------------------------------------|
E|------1---1-------3---3----------------------------------------------------|


Chorus:

    Ah-ah-ah-ah-ah-ah
    A chord diagramFF                     A chord diagramG MajorG           A chord diagramC majorC
e|---------------------------------------------------------------------------|
B|--1-----1---------1-----3-----3-----1-----1--------------------------------|
G|----2-------2-2-----------4-----------0------------------------------------|
D|---------------------------------------------------------------------------|
A|------------------------------------3---3---3------------------------------|
E|--1---1---1-1---1---1---3---3---3------------------------------------------|

    Will we still hang out and talk, when I'm no longer in charge? Oh,
    A chord diagramFF             A chord diagramG MajorG
e|---------------------------------------------------------------------------|
B|--1-----1---1---3-----3---3------------------------------------------------|
G|----2-------------4--------------------------------------------------------|
D|---------------------------------------------------------------------------|
A|---------------------------------------------------------------------------|
E|--1---1---1-1---3---3---3-3---0--------------------------------------------|

    Dear Winter, I hope you like your name, I hope you let me take a shot with you on your 21st
    A chord diagramFF           F/F#      A chord diagramG MajorG           G/G#
e|---------------------------------------------------------------------------|
B|--1-----1---------------3-----3-----3-----3--------------------------------|
G|----2---------2-2-2-------4-----------4------------------------------------|
D|---------------------------------------------------------------------------|
A|---------------------------------------------------------------------------|
E|--1---1---1---2-----2---3---3---3---4---4---4------------------------------|

    But shit, I gotta meet your mom first.
    A chord diagramA minorAm         A chord diagramG6G6          A chord diagramFF                   A chord diagramF minorFm  A chord diagramC majorC
e|--0----0-----0---------------------1---------1------------0----------------|
B|----1----------0---0-----------------1-------1----1---------1--------------|
G|-------------------------2-----2-------2-----1------0----------------------|
D|---------------------------3-------------3---3--------2--------------------|
A|--0---0--0-------------------3---3-----------3----3-----3---3--------------|
E|-------------3---3---3---1-------------------1-----------------------------|


Outro: (All chords strummed; omit high e note except for A chord diagramA minorAm and A chord diagramG6G6 chords)

     A chord diagramFF           A chord diagramG MajorG                A chord diagramC majorC
Dear Winter, I'm looking for your mom

     A chord diagramFF            A chord diagramG MajorG                 A chord diagramFF             A chord diagramG MajorG                A chord diagramA minorAm      A chord diagramG6G6
I've gotta find a girl that doesn't mind that I'm inside my head a lot.

A chord diagramFF       A chord diagramG MajorG               A chord diagramA minorAm      A chord diagramG6G6
Winter, It won't be too long

A chord diagramFF            A chord diagramG MajorG               A chord diagramC majorC
First I just gotta find your mom.

Other versions of Dear Winter

Dear winterChords

↓ Add and view comments below ↓

What do you think about this song and these tabs?

Add your comments, questions, rant or a thumbs up below.

Almost there ...

Sign in to get your own page with links to favourite songs and more. You are just one click away...

Login with Facebook Login with Google