Log in

One click and you are in

Login with Facebook Login with Google

Why sign up and log in

Guitar Tabs Explorer
The Airborne Toxic Event tabs for Missy

Guitar tabs

The Airborne Toxic Event
Album: The Airborne Toxic Event

Lead Guitar
Starts about a minute after Intro.
|---5---5---------------5---5----------------5---5-----------------|
|-5---6---2h3-1-------5---6---2h3-1--------5---6---2h3-1-----------|
|------------------------------------------------------------------|
|------------------------------------------------------------------|
|------------------------------------------------------------------|
|------------------------------------------------------------------|
|-1-X-1-X-1-X-1-X-111--11/-5-X-5-X-5-X-5-X-555--55-----|
|-3-X-3-X-3-X-3-X-333--33/-6-X-6-X-6-X-6-X-666--66-----|
|-2-X-2-X-2-X-2-X-222--22/-5-X-5-X-5-X-5-X-555--55-----|
|------------------------------------------------------|
|------------------------------------------------------|
|------------------------------------------------------|


|---5---5---------------5---5----------------5---5-----------------|
|-5---6---2h3-1-------5---6---2h3-1--------5---6---2h3-1-----------|
|------------------------------------------------------------------|
|------------------------------------------------------------------|
|------------------------------------------------------------------|
|------------------------------------------------------------------|

|-1-X-1-X-1-X-1-X-111--11/-5-X-5-X-5-X-5-X-555--55-----|
|-3-X-3-X-3-X-3-X-333--33/-6-X-6-X-6-X-6-X-666--66-----|
|-2-X-2-X-2-X-2-X-222--22/-5-X-5-X-5-X-5-X-555--55-----|
|------------------------------------------------------|
|------------------------------------------------------|
|------------------------------------------------------|

Almost there ...

Sign in to get your own page with links to favourite songs and more. You are just one click away...

Login with Facebook Login with Google