Log in

One click and you are in

Login with Facebook Login with Google

Why sign up and log in

Guitar Tabs Explorer
The Airborne Toxic Event bass tabs for Come on out

Come On Out bass tab by The Airborne Toxic Event

The Airborne Toxic Event bass tabs for Come on out

Bass tabs

Tuning: Standard (E A D G)


Intro, after two measures of drum:

G|---------------------------------------------------------------------------|
D|---------------------------------------------------------------------------|
A|5-5-5-5-5-5-5-5-5-5-5-5-5-5-7-9--------------------------------------------|
E|--------------------------------3-3-3-3-3-3-3-3-7-7-7-7-7-5-5-5------------|

G|---------------------------------------------------------------------------|
D|---------------------------------------------------------------------------|
A|5-5-5-5-5-5-5-5-5-5-5-5-5-5-7-9--------------------------------------------|
E|--------------------------------3-3-3-3-3-3-3-3-7-7-7-7-7-5-5-5------------|

G|---------------------------------------------------------------------------|
D|---------------------------------------------------------------------------|
A|5-5-5-5-5-5-5-5-5-5-5-5-5-5-7-9--------------------------------------------|
E|--------------------------------3-3-3-3-3-3-3-3-7-7-7-7-7-5-5-5------------|


Verse 1:

G|---------------------------------------------------------------------------|
D|---------------------------------------------------------------------------|
A|5-5-5-5-5-5-5-5-5-5-5-5-5-5-7-9--------------------------------------------|
E|--------------------------------3-3-3-3-3-3-3-3-7-7-7-7-7-5-5-5------------|

G|---------------------------------------------------------------------------|
D|---------------------------------------------------------------------------|
A|5-5-5-5-5-5-5-5-5-5-5-5-5-5-7-9--------------------------------------------|
E|--------------------------------3-3-3-3-3-3-3-3-7-7-7-7-7-5-5-5------------|

G|---------------------------------------------------------------------------|
D|---------------------------------------------------------------------------|
A|5-5-5-5-5-5-5-5-5-5-5-5-5-5-7-9--------------------------------------------|
E|--------------------------------3-3-3-3-3-3-3-3-7-7-7-7-7-5-5-5------------|

G|---------------------------------------------------------------------------|
D|---------------------------------------------------------------------------|
A|5-5-5-5-5-5-5-5-5-5-5-5-5-5-7-9--------------------------------------------|
E|--------------------------------3-3-3-3-3-3-3-3-7-7-7-7-7-5-5-5------------|

Chorus:

G|---------------------------------------------------------------------------|
D|---------------------------------------------------------------------------|
A|5-5-5-5-5-5-5-5-5-5-5-5-5-5-7-9--------------------------------------------|
E|--------------------------------3-3-3-3-3-3-3-3-7-7-7-7-7-5-5-5------------|

G|---------------------------------------------------------------------------|
D|---------------------------------------------------------------------------|
A|5-5-5-5-5-5-5-5-5-5-5-5-5-5-7-9--------------------------------------------|
E|--------------------------------3-3-3-3-3-3-3-3-7-7-7-7-7-5-5-5------------|

G|---------------------------------------------------------------------------|
D|---------------------------------------------------------------------------|
A|5-5-5-5-5-5-5-5-5-5-5-5-5-5-7-9--------------------------------------------|
E|--------------------------------3-3-3-3-3-3-3-3-7-7-7-7-7-5-5-5------------|

G|---------------------------------------------------------------------------|
D|---------------------------------------------------------------------------|
A|5-5-5-5-5-5-5-5-5-5-5-5-5-5-7-9--------------------------------------------|
E|--------------------------------3-3-3-3-3-3-3-3-7-7-7-7-7-5-5-5------------|


Verse 2:

G|---------------------------------------------------------------------------|
D|---------------------------------------------------------------------------|
A|5-5-5-5-5-5-5-5-5-5-5-5-5-5-7-9--------------------------------------------|
E|--------------------------------3-3-3-3-3-3-3-3-7-7-7-7-7-5-5-5------------|

G|---------------------------------------------------------------------------|
D|---------------------------------------------------------------------------|
A|5-5-5-5-5-5-5-5-5-5-5-5-5-5-7-9--------------------------------------------|
E|--------------------------------3-3-3-3-3-3-3-3-7-7-7-7-7-5-5-5------------|

G|---------------------------------------------------------------------------|
D|---------------------------------------------------------------------------|
A|5-5-5-5-5-5-5-5-5-5-5-5-5-5-7-9--------------------------------------------|
E|--------------------------------3-3-3-3-3-3-3-3-7-7-7-7-7-5-5-5------------|

G|---------------------------------------------------------------------------|
D|---------------------------------------------------------------------------|
A|5-5-5-5-5-5-5-5-5-5-5-5-5-5-7-9--------------------------------------------|
E|--------------------------------3-3-3-3-3-3-3-3-7-7-7-7-7-5-5-5------------|


Chorus:

G|---------------------------------------------------------------------------|
D|---------------------------------------------------------------------------|
A|rest-----------------------------------------------------------------------|
E|---------------------------------------------------------------------------|


Bridge:

G|---------------------------------------------------------------------------|
D|5-5-5-5-5-5-5-5-----------------7-7-7-7-7-7-7-7----------------------------|
A|----------------7-7-7-7-7-7-7-7-----------------5-5-5-5-5-5-5-5------------| x6
E|---------------------------------------------------------------------------|

G|---------------------------------------------------------------------------|
D|5-------------------------------7------------------------------------------| x2
A|---------------------------------------------------------------------------|
E|---------------------------------------------------------------------------|


Outro:

G|---------------------------------------------------------------------------|
D|---------------------------------------------------------------------------|
A|5-5-5-5-5-5-5-5-5-5-5-5-5-5-7-9--------------------------------------------|
E|--------------------------------3-3-3-3-3-3-3-3-7-7-7-7-7-5-5-5------------|

G|---------------------------------------------------------------------------|
D|---------------------------------------------------------------------------|
A|5-5-5-5-5-5-5-5-5-5-5-5-5-5-7-9--------------------------------------------|
E|--------------------------------3-3-3-3-3-3-3-3-7-7-7-7-7-5-5-5------------|

G|---------------------------------------------------------------------------|
D|---------------------------------------------------------------------------|
A|5-5-5-5-5-5-5-5-5-5-5-5-5-5-7-9--------------------------------------------|
E|--------------------------------3-3-3-3-3-3-3-3-7-7-7-7-7-5-5-5------------|

G|---------------------------------------------------------------------------|
D|---------------------------------------------------------------------------|
A|5-5-5-5-5-5-5-5-5-5-5-5-5-5-7-9--------------------------------------------|
E|--------------------------------3-3-3-3-3-3-3-3-7-7-7-7-7-5-5-5------------|

G|---------------------------------------------------------------------------|
D|---------------------------------------------------------------------------|
A|5-5-5-5-5-5-5-5-5-5-5-5-5-5-7-9--------------------------------------------|
E|--------------------------------3-3-3-3-3-3-3-3-7-7-7-7-7-5-5-5------------|

G|---------------------------------------------------------------------------|
D|---------------------------------------------------------------------------|
A|5-5-5-5-5-5-5-5-5-5-5-5-5-5-7-9--------------------------------------------|
E|--------------------------------3-3-3-3-3-3-3-3-7-7-7-7-7-5-5-5------------|

That's basically it. A few dropped notes in the transitions, listen to the song and you can figure it out....

************************************

| x  Dead note
| g  Grace note
| (n) Ghost note
| h  Hammer-on
| p  Pull-off
| r  Release
| >  Accented note
| t  Tapping
| b  Bend
| br Bend release
| pb Pre-bend
| pbr Pre-bend release
| /  Slide up
| \  Slide down
| ~  Vibrato
| s  Slap
| P  Pop
| PM Palm mute
| TR Trill
| N  Tremolo

************************************

Almost there ...

Sign in to get your own page with links to favourite songs and more. You are just one click away...

Login with Facebook Login with Google