Log in

One click and you are in

Login with Facebook Login with Google

Why sign up and log in

Guitar Tabs Explorer
The Airborne Toxic Event bass tabs for All at once

All At Once bass tab by The Airborne Toxic Event

The Airborne Toxic Event bass tabs for All at once

Bass tabs

Album: All At Once
Tabbed by: Patrick Gamache


Guitar Intro 0:00-0:55
|--REST--|
Intro/Verse 1 0:55-1:49
G|----------------|----------------|----------------|----------------|
D|----------------|----------------|----------------|----------------|
A|----------------|----------------|----------------|----------------|
E|3-3-3-333-3-3-33|3-3-3-333-3-3-33|3-3-3-333-3-3-33|3-3-3-333-3-3-33|

G|----------------|----------------|----------------|----------------|
D|----------------|----------------|----------------|----------------|
A|3-3-3-333-3-3-33|3-3-3-333-3-3-33|----------------|----------------|
E|----------------|----------------|3-3-3-333-3-3-33|3-3-3-333-3-3-33|
x4


Bridge 1:49-2:17
G|----------------|----------------|----------------|----------------|
D|----------------|----------------|----------------|----------------|
A|5-5-5-555-5-5-55|5-5-5-555-5-5-5-|3-3-3-333-3-3-33|3-3-3-333-3-3-33|
E|----------------|----------------|----------------|----------------|

G|----------------|----------------|----------------|----------------|
D|----------------|----------------|----------------|----------------|
A|----------------|----------------|----------------|----------------|
E|3-3-3-333-3-3-33|3-3-3-333-3-3-33|3-3-3-333-3-3-33|3-3-3-333-3-3-33|

G|----------------|----------------|----------------|----------------|
D|--------2-2-2-2-|4-4-4-4-5-5-5-5-|----------5-5-5-|----------------|
A|5-5-5-5---------|----------------|3-3-3-3-3-------|3-3-3-3-3-3-3-3-|
E|----------------|----------------|----------------|----------------|

G|----------------|----------------|----------------|----------------|
D|----------------|----------------|----------------|----------------|
A|----------------|----------------|----------------|----------------|
E|3-3-3-333-3-3-33|3-3-3-333-3-3-33|3-3-3-333-3-3-33|3-3-3-333-3-3-33|

Verse 2 2:17-2:57
G|----------------|----------------|----------------|----------------|
D|----------------|----------------|----------------|----------------|
A|----------------|----------------|----------------|----------------|
E|3-3-3-333-3-3-33|3-3-3-333-3-3-33|3-3-3-333-3-3-33|3-3-3-333-3-3-33|

G|----------------|----------------|----------------|----------------|
D|----------------|----------------|----------------|----------------|
A|3-3-3-333-3-3-33|3-3-3-333-3-3-33|----------------|----------------|
E|----------------|----------------|3-3-3-333-3-3-33|3-3-3-333-3-3-33|
x3

Bridge 2:57-3:25
G|----------------|----------------|----------------|----------------|
D|----------------|----------------|----------------|----------------|
A|5-5-5-555-5-5-55|5-5-5-555-5-5-5-|3-3-3-333-3-3-33|3-3-3-333-3-3-33|
E|----------------|----------------|----------------|----------------|

G|----------------|----------------|----------------|----------------|
D|----------------|----------------|----------------|----------------|
A|----------------|----------------|----------------|----------------|
E|3-3-3-333-3-3-33|3-3-3-333-3-3-33|3-3-3-333-3-3-33|3-3-3-333-3-3-33|

G|----------------|----------------|----------------|----------------|
D|--------2-2-2-2-|4-4-4-4-5-5-5-5-|----------5-5-5-|----------------|
A|5-5-5-5---------|----------------|3-3-3-3-3-------|3-3-3-3-3-3-3-3-|
E|----------------|----------------|----------------|----------------|

G|----------------|----------------|----------------|----------------|
D|----------------|----------------|----------------|----------------|
A|----------------|----------------|----------------|----------------|
E|3-3-3-333-3-3-33|3-3-3-333-3-3-33|3-3-3-333-3-3-33|/12121212-121212|

Breakdown 1 3:25-3:52
G|----------------|----------------|----------------|----------------|
D|----------------|----------------|----------------|----------------|
A|----------------|----------------|----------------|----------2-2-2-|
E|3-3-3-333-3-3-33|3-3-3-333-3-3-33|0-0-0-000-0-0-00|0-0-0-0-0-------|

G|----------------|----------------|----------------|----------------|
D|----------------|----------------|----------------|----------------|
A|3-3-333-3-3-3-33|3-3-3-333-5-5-5-|----------------|----------------|
E|----------------|----------------|3-3-3-333-3-3-33|3-3-3-333-3-3-3~|
x2

3:52-4:04
|--REST--|

Breakdown 2 4:04-4:31
G|----------------|----------------|----------------|----------------|
D|----------------|----------------|----------------|----------------|
A|----------------|----------------|----------------|----------------|
E|3~--------------|3~--------------|3~--------------|-----RESTx5-----|
x2


Outro 4:31-5:16
G|----------------|----------------|----------------|----------------|
D|----------------|----------------|----------------|----------------|
A|----------------|----------------|----------------|----------------|
E|7~--------------|5~--------------|3~--------------|-----RESTx5-----|

G|----------------|
D|----------------|
A|----------------|
E|3~--------------|

Ratings, corrections, and comments are both welcome and appreciated.

Almost there ...

Sign in to get your own page with links to favourite songs and more. You are just one click away...

Login with Facebook Login with Google