Log in

One click and you are in

Login with Facebook Login with Google

Why sign up and log in

Guitar Tabs Explorer
Airbag bass tabs for Safe like you

Bass tabs

  • Tuning: Standard tuning
  • Difficulty: Beginner
-----------------------------------------------------------------------------
                     Artist - Airbag
                     *****************
                    Song - Safe Like You
                    **********************
                   Album - Identity (20009)
                   *************************
                    Tabbed By - Ayreon77
                    **********************
-----------------------------------------------------------------------------

Tuning = Standard
00:35
G|----------|----------------|----------|----------------|
D|----------|-------3-3--3-3-|----------|-------3-3--3-3-|
A|-3-3--3-3-|-3--5-----------|-3-3--3-3-|-3--5-----------|
E|----------|----------------|----------|----------------|


---------------------------
01:02

VERSE 1
********
G|----------|----------------|----------|----------------|
D|----------|----0--3-3--3-3-|----------|----0--3-3--3-3-|
A|-3-3--3-3-|-3--------------|-3-3--3-3-|-3--------------|
E|----------|----------------|----------|----------------|


---------------------------
01:28

BREAK
******
G|----------|----------------|----------|----------------|
D|----------|----0--3-3--3-3-|----------|----0--3-3--3-3-|
A|-3-3--3-3-|-3--------------|-3-3--3-3-|-3--------------|
E|----------|----------------|----------|----------------|

---------------------------
01:55

VERSE 2
********
G|----------|-------------------|--------|----------|--------------|-------|------------|
D|----------|---------0--3--3-3-|-3--3-3-|----------|----------0-3-|-0-3-3-|-3--3--3--3-|
A|-3--0-3-3-|-3--0-3------------|--------|-3--0-3-3-|-3--0-3-3-----|-------|------------|
E|----------|-------------------|--------|----------|--------------|-------|------------|


---------------------------
02:21

CHORUS
*******
G|----------|----------|------------|----------|------------|---------s------|----------|----------|
D|-3--0-3-3-|-3--0-3-3-|-3-2--0-2-2-|-2--0-2-2-|-2-3--0-3-3-|-3--0-3-3\5-3-0-|-2--0-2-2-|-2--0-2-2-|
A|----------|----------|------------|----------|------------|----------------|----------|----------|
E|----------|----------|------------|----------|------------|----------------|----------|----------|


G|------------|----------|------------|----------|------------|---------s----------|
D|-2-3--0-3-3-|-3--0-3-3-|-3-2--0-2-2-|-2--0-2-2-|-2-3--0-3-3-|-3--0-3-3\5-5-5-5-3-|
A|------------|----------|------------|----------|------------|--------------------|
E|------------|----------|------------|----------|------------|--------------------|


---------------------------
03:08
EBOW SOLO
**********
G|-------------|----------------|----------|----------------|
D|-------------|----0--3-3--3-3-|----------|----0--3-3--3-3-|
A|-3--3-3--3-3-|-3--------------|-3-3--3-3-|-3--------------|
E|-------------|----------------|----------|----------------|


---------------------------
03:34

VERSE 2
********
G|----------|-------------|----------|----------------|------------|
D|----------|----0-3--3-3-|----------|----0--3-3--3-3-|-3--3--3--3-|
A|-3-3--3-3-|-3-----------|-3-3--3-3-|-3--------------|------------|
E|----------|-------------|----------|----------------|------------|


---------------------------
04:01

CHORUS
*******
G|----------|----------|------------|----------|------------|---------s------|----------|----------|
D|-3--0-3-3-|-3--0-3-3-|-3-2--0-2-2-|-2--0-2-2-|-2-3--0-3-3-|-3--0-3-3\5-3-0-|-2--0-2-2-|-2--0-2-2-|
A|----------|----------|------------|----------|------------|----------------|----------|----------|
E|----------|----------|------------|----------|------------|----------------|----------|----------|


G|------------|----------|------------|----------|------------|---------s----------|
D|-2-3--0-3-3-|-3--0-3-3-|-3-2--0-2-2-|-2--0-2-2-|-2-3--0-3-3-|-3--0-3-3\5-5-5-5-3-|
A|------------|----------|------------|----------|------------|--------------------|
E|------------|----------|------------|----------|------------|--------------------|


---------------------------
04:50

SOLO 1
*******
G|--------|-------------|--------|----------------|
D|--------|----0-3--3-3-|--------|----0--3-3--3-3-|
A|-3--3-3-|-3-----------|-3--3-3-|-3--------------|
E|--------|-------------|--------|----------------|

05:13 - EBOW SOLO
G|----------|-------------|-------------|-----------|----------|--------|
D|----------|----0-3--3-3-|-5-----------|-----------|-0-3--3-3-|-3--3-3-|
A|-3-3--3-3-|-3-----------|---3--0--3-3-|-3--0--3-3-|----------|--------|
E|----------|-------------|-------------|-----------|----------|--------|

05:40
G|-------------|-----------|---------------|------------|
D|-5-----------|-----------|---0-3--0--3-3-|-3--3--3--3-|
A|---3--0--3-3-|-3--0--3-3-|-3-------------|------------|
E|-------------|-----------|---------------|------------|


---------------------------
05:53

SOLO 2
*******
G|----------|----------|------------|----------|------------|---------s------|----------|----------|
D|-3--0-3-3-|-3--0-3-3-|-3-2--0-2-2-|-2--0-2-2-|-2-3--0-3-3-|-3--0-3-3\5-3-0-|-2--0-2-2-|-2--0-2-2-|
A|----------|----------|------------|----------|------------|----------------|----------|----------|
E|----------|----------|------------|----------|------------|----------------|----------|----------|


G|------------|----------|------------|----------|------------|---------s----------|
D|-2-3--0-3-3-|-3--0-3-3-|-3-2--0-2-2-|-2--0-2-2-|-2-3--0-3-3-|-3--0-3-3\5-5-5-5-3-|
A|------------|----------|------------|----------|------------|--------------------|
E|------------|----------|------------|----------|------------|--------------------|


OUTRO
******
G|----------|-------------|-------------|-----------|----------|--------|
D|----------|----0-3--3-3-|-5-----------|-----------|-0-3--3-3-|-3--3-3-|repeat this
A|-3-3--3-3-|-3-----------|---3--0--3-3-|-3--0--3-3-|----------|--------| and fade
E|----------|-------------|-------------|-----------|----------|--------|    out.

Almost there ...

Sign in to get your own page with links to favourite songs and more. You are just one click away...

Login with Facebook Login with Google