Log in

One click and you are in

Login with Facebook Login with Google

Why sign up and log in

Guitar Tabs Explorer
Air bass tabs for Sexy boy

Bass tabs

Air: Sexy boy (from Moon Safari)
bass tabs

G-----7----------------7---------------7-----------
D-------------5h7--------------5h7------------5h7-
A--5-----5-5--------5-----5-5-------3----3-3------
E--------------------------------------------------

G-----7--------------7----------------7-------------
D------------5h7-------------5h7--------------5h7--
A--3-----3-3------5-----5-5--------5-----5-5-----
E----------------------------------------------------

G----------------------------------------------------
D--3--3----3-3--2h3--3--3----3-3--2h3--------------
A--------3------------------3------------------------
E----------------------------------------------------

this is the second, other part:

G----------------------------------------------------------
D-----3h5-------3h5------3h5------3h5------1h3------1h3---
A--3-------3-3--------------------------1-------1-1-------
E---------------------3-------3-3--------------------------

G-------------------------
D-----1h3------1h3--------
A-------------------------
E--1-------1-1------------

please correct me if i'm wrong!
enjoy it!

matthias

Almost there ...

Sign in to get your own page with links to favourite songs and more. You are just one click away...

Login with Facebook Login with Google