Log in

One click and you are in

Login with Facebook Login with Google

Why sign up and log in

Guitar Tabs Explorer
Air bass tabs for Le femme dargent

Bass tabs

Air
"Le Femme D'argent" (The Money Woman)
Moon Safari
ben_fico@yahoo.com

main part
g|-------------------------------------------|
d|*------7-9-7h9p7--7/----------------------*|
a|*----9----------9-----9--9-7-5-7-7--------*|
e|-7-7--------------------------------5-55-5-|

"chorus"
g|------------------------------|
d|9-9---7-9~~--(9)------7-9~~---|
a|----9---------------9---------|
e|----------------7-7--------19/|

"solo"
g|---------------------------------------------|
d|----------------------7-9~~------------------|
a|------------2~~-----9-------------7b~-7b-----|
e|19/-7~~-2-5-----7-7---------7-10---------10-7|

g|------------------------------|
d|------14-14b-14----14---------|
a|14-17-----------17----17-14---|
e|----------------------------17|

g|---------14-14h16-16-14----14-16/|
d|------16----------------16-------|
a|14-14----------------------------|
e|---------------------------------|

g|----------------------------------|
d|14h16-16-14-12-14-14--------------|
a|---------------------12--12-12--12|
e|----------------------------------|

g|--------------------------------------------------|
d|------7-9~~-------14-14b-14----14-----------------|
a|----9-------14-17-----------17----17-14---14-17-14|
e|7-7-------------------------------------17--------|

g|----------------------------------------------|
d|7h9-7-------------------------7-7h9-9-7---7-9/|
a|------9-7----7b-------------9-----------9-----|
e|----------10----10-7-5--7-7-------------------|

g|--------------------|---------------------------------|
d|--------------------|*-------------------------------*|
a|9-9-7-5-7-7---------|*-------------------------------*|
e|------------5-55-5--|-7x77-x-7-77-x-7-77-x-77-x-7-77x-|

then after a long time..
g|-----------------------|
d|-----------------------|
a|-----7-7b-7----7-------| and then back to the main
part until the end.
e|7-10--------10---10-7-5|

(key)
h=hammer on
p=pull off
b=bend
x=muted
\=slide down
/=slide up
*=repeat
~~=hold


__________________________________

Almost there ...

Sign in to get your own page with links to favourite songs and more. You are just one click away...

Login with Facebook Login with Google