GuitarTabsExplorer icon
GuitarTabsExplorer icon

Log in

Songbook

  • Log in to add and see bookmarks

Last visited songs

  • No songs visited yet...
Clouds Up by Air

Tabs

e|--------------2-----------------2-------------------|
Chord diagramBB|--------------3-----------------3-------------------|
Chord diagramG+G|--4-----------4--------4--------4-------------------|
Chord diagramD MajorD|--4-----------4--------4--------4-------------------|
Chord diagramA augmentedA|--2--------------------2----------------------------|
Chord diagramE MajorE|----------------------------------------------------|


--2-----------2-----------------2-------------------|
--3-----------3-----------------3-------------------|
--4-----------4--------4--4--4--4-------------------|
--4-----------4--------4--4--4--4-------------------|
--2--------------------2--2--2----------------------|
----------------------------------------------------|
--------------0--0--0-----------------0--0--0-------|
--------------3--3--3-----------3-----3--3--3-------|
--------------4--4--4-----------3-----3--3--3-------|
--4-----------------------4-----4-------------------|
--2-----------------------2-------------------------|
----------------------------------------------------|


--------------4-----4--4-----4--4L----4--4g-4g-4g---|
--------------4-----4--4-----4--4L----4--4g-4g-4g---|
--------------4-----4--4-----4--4L----4--4g-4g-4g---|
--6-----------6-----6--6-----6--6L----6--6g-6g-6g---|
--6-------------------------------------------------|
--4-------------------------------------------------|


--------------0--0--0-----------------0--0--0-------|
--------------3--3--3-----------3-----3--3--3-------|
--------------4--4--4-----------3-----3--3--3-------|
--4-----------------------4-----4-------------------|
--2-----------------------2-------------------------|
----------------------------------------------------|


--------------4-----4--4-----4--4L----4--4g-4g-4g---|
--------------4-----4--4-----4--4L----4--4g-4g-4g---|
--------------4-----4--4-----4--4L----4--4g-4g-4g---|
--6-----------6-----6--6-----6--6L----6--6g-6g-6g---|
--6-------------------------------------------------|
--4-------------------------------------------------|


----------------------------------------------------|
----------------------------------------------------|
----------------------------------------------------|
--4-----------4-----4--4--4-----------4-----4--4----|
--2-----------2-----2--2--2-----------2-----2--2----|
----------------------------------------------------|
--------------4L----4--4L----4--4L----4--4g-4g-4g---|
--------------4L----4--4L----4--4L----4--4g-4g-4g---|
--------------5L----5--5L----5--5L----5--5g-5g-5g---|
--6-----------6L----6--6L----6--6L----6--6g-6g-6g---|
--6-------------------------------------------------|
--4-------------------------------------------------|


--2-----------2-----2--2--------2--------2--2g-2g---|
--3-----------3-----3--3--------3--------3--3g-3g---|
--4-----------4-----4--4--------4--------4--4g-4g---|
--4-----------4-----4--4--------4--------4--4g-4g---|
--2-----------2-----2--2--------2--------2--2g-2g---|
----------------------------------------------------|


--2-----------2-----2--2--------2--------2--2g-2g---|
--3-----------3-----3--3--------3--------3--3g-3g---|
--4-----------4-----4--4--------4--------4--4g-4g---|
--4-----------4-----4--4--------4--------4--4g-4g---|
--2-----------2-----2--2--------2--------2--2g-2g---|
----------------------------------------------------|


--2-----------2-----2--2--------2--------2--2g-2g---|
--3-----------3-----3--3--------3--------3--3g-3g---|
--4-----------4-----4--4--------4--------4--4g-4g---|
--4-----------4-----4--4--------4--------4--4g-4g---|
--2-----------2-----2--2--------2--------2--2g-2g---|
----------------------------------------------------|


--2-----------2-----2--2--------2--------2--2g-2g---|
--3-----------3-----3--3--------3--------3--3g-3g---|
--4-----------4-----4--4--------4--------4--4g-4g---|
--4-----------4-----4--4--------4--------4--4g-4g---|
--2-----------2-----2--2--------2--------2--2g-2g---|
----------------------------------------------------|


-----------0L-0--------------------0L-0-------------|
-----------------3-----------------------3----------|
-----4-----------------------3----------------------|
--4-----4-----------4-----4-----4-----------4-------|
--2-----------------------2-------------------------|
----------------------------------------------------|


----------------------------------------------------|
----------------------------------------------------|
-----------4L-4--------------------4L-4-------------|
-----6-----------6-----6-----6-----------6-----6----|
--6-----6-----------6-----6-----6-----------6-------|
--4-----------------------4-------------------------|


-----------0L-0--------------------0L-0-------------|
-----------------3-----------------------3----------|
-----4-----------------------3----------------------|
--4-----4-----------4-----4-----4-----------4-------|
--2-----------------------2-------------------------|
----------------------------------------------------|


----------------------------------------------------|
----------------------------------------------------|
-----------4L-4--------------------4L-4-------------|
-----6-----------6-----6-----6-----------6-----6----|
--6-----6-----------6-----6-----6-----------6-------|
--4-----------------------4-------------------------|


----------------------------------------------------|
-----------4L-4--------------------4L-4-------------|
-----4-----------4-----4-----4-----------4-----4----|
--4-----4-----------4-----4-----4-----------4-------|
--2-----------------------2-------------------------|
----------------------------------------------------|


----------------------------------------------------|
-----------4L-4--------------------4L-4-------------|
-----------5L-5--------------------5L-5-------------|
-----6-----------6-----6-----6-----------6-----6----|
--6-----6-----------6-----6-----6-----------6-------|
----------------------------------------------------|


--------------2L----2-----------2-----2--2--2g-2g---|
--------------3L----3-----------3-----3--3--3g-3g---|
--4-----------4L----4--4-----4--4-----4--4--4g-4g---|
--4-----------4L----4--4-----4--4-----4--4--4g-4g---|
--2-----------2L----2--2-----2--2-----2--2--2g-2g---|
----------------------------------------------------|


--------------2L----2-----------2L----2-------------|
--------------3L----3-----------3L----3-------------|
--4-----------4L----4--4-----4--4L----4-------------|
--4-----------4L----4--4-----4--4L----4-------------|
--2-----------2L----2--2-----2--2L----2-------------|
----------------------------------------------------|


--------------2L----2-----------2-----2--2--2g-2g---|
--------------3L----3-----------3-----3--3--3g-3g---|
--4-----------4L----4--4-----4--4-----4--4--4g-4g---|
--4-----------4L----4--4-----4--4-----4--4--4g-4g---|
--2-----------2L----2--2-----2--2-----2--2--2g-2g---|
----------------------------------------------------|


--------------2L----2-----------2L----2--2--2g-2g---|----------------||
--------------3L----3-----------3L----3--3--3g-3g---|----------------||
--4-----------4L----4--4-----4--4L----4--4--4g-4g---|--4-------------||
--4-----------4L----4--4-----4--4L----4--4--4g-4g---|--4-------------||
--2-----------2L----2--2-----2--2L----2--2--2g-2g---|--2-------------||
----------------------------------------------------|----------------||


***********************

| L - tied note
| g - ghost note

***********************

[ Privacy | About us ]

Welcome to the guitar community

Why join and log in?
- Get songbook with favourite songs
- Get custom made front page
- Submit chords and tabs
- Submit guitar-cover videos
- Get a lot of thumbs up for your work

Songbook

Last visited songs

Site
Home
Search
Community
Submit chords

Video

No video for this page. Check out how you can submit guitar-cover videos here

Search tabs and chords

Browse by artist

A B C D E F G H I J K L M N O P Q R S T U V W X Y Z #


Menu

Search

Video

Bookmark

Login