Log in

One click and you are in

Login with Facebook Login with Google

Why sign up and log in

Guitar Tabs Explorer
Aiden tabs for She will love you

Guitar tabs

This is my first tab, and it is designed for use with one guitar on top of the recorded
It is quite basic, and therefore well suited to novice  guitarists.


Intro

[--------------------------------]
[--------------------------------]
[--------------------------------]
[33333333333333358888888888888888]
[33333333333333358888888888888888]
[11111111111111136666666666666666]
Intro hook (Comes in after intro is played once)

[----------------]
[----10--10-11-10]
[7-10--10--------]
[----------------]
[----------------]
[----------------]
Repeat 4 times


Verse

[---------------]
[---------------]
[---------------]
[3-3-3-3-8-8-8-8]
[3-3-3-3-8-8-8-8]
[1-1-1-1-6-6-6-6]
repeat 9 times, strum double speed on the 5th, 8th and 9th repeats.

Chorus

Back to intro chords-

[--------------------------------]
[--------------------------------]
[--------------------------------]
[33333333333333358888888888888888]
[33333333333333358888888888888888]
[11111111111111136666666666666666]
repeat twice

After chorus bit

[----------------]
[----------------]
[----------------]
[3-------8-------]
[3-------8-------]
[1-------6-------]
just once

[13-12-8-8]
[---------]
[---------]
[---------]
[---------]
[---------]
repeat 4 times

[-----------------------------------------------]
[-----------------------------------------------]
[-----------------------------------------------]
[12-12-12-12-12-12-12-12-15-15-14-14-10-10-10-10]
[12-12-12-12-12-12-12-12-15-15-14-14-10-10-10-10]
[10-10-10-10-10-10-10-10-13-13-12-12-8--8--8--8-]
Palm mute this part and repeat twice


Solo
                                                             pmpm
[1-0--1-0-1-0-101010------------------------------------------------------]
[----1---1---1------------------------------------------------------------]
[-------------------3-2-0-----3-2-0---------------------------------------]
[------------------------3-232-----3-23235-3-2323235-3-2323230000338787878]
[-------------------------------------------------------------------------]
[-------------------------------------------------------------------------]

[-------------2-2-1-1-3-3-6-6-10-10-8--8--6-6-6-6]
[-------------3-3-1-1-3-3-6-6-10-10-8--8--6-6-6-6]
[-------------2-2-2-2-4-4-7-7-11-11-9--9--7-7-7-7]
[878788-10-10-0-0-3-3-5-5-8-8-12-12-10-10-8-8-8-8]
[-------------0-0-3-3-5-5-8-8-12-12-10-10-8-8-8-8]
[-----------------1-1-3-3-6-6-10-10-8--8--6-6-6-6]

Final chorus

[--------------------------------]
[--------------------------------]
[--------------------------------]
[33333333333333358888888888888888]
[33333333333333358888888888888888]
[11111111111111136666666666666666]

repeat 4 times then finish with...

[----]
[----]
[----]
[3---]
[3---]
[1---]

I hope you enjoy playing this song, I know I do!
ⓘ Guitar tab for 'She Will Love You' by Aiden, formed in 2003

Almost there ...

Sign in to get your own page with links to favourite songs and more. You are just one click away...

Login with Facebook Login with Google