Log in

One click and you are in

Login with Facebook Login with Google

Why sign up and log in

Guitar Tabs Explorer
Aiden tabs for King on holiday

Guitar tabs

Aiden
                          "King On Holiday"
                                Knives

Intro
|---------------------------------|
|-2--------1-----------------2----|
|-3--------3--------6--------3----|
|-------------------4-------------|
|---------------------------------|
|---------------------------------|

|---------------------|---------------------|
|---------------------|---------------------|
|---------------------|---------------------|
|--3--3---3--3--3---3-|--3--3---3--6--6---6-|
|--1--1---1--1--1---1-|--1--1---1--4--4---4-|
|---------------------|---------------------|
|
|
|---------------------|---------------------|
|---------------------|---------------------|
|-15-15--15-15-15--15-|-15-15--15-15-15--15-|
|--x--x---x--x--x---x-|--x--x---x--x--x---x-|
|-13-13--13-13-13--13-|-13-13--13-13-13--13-|
|---------------------|---------------------|


|---------------------|----------------------|
|---------------------|----------------------|
|---------------------|----------------------|
|--4--4---4--4--4---4-|--4--4---4--4--4---4--|
|--4--4---4--4--4---4-|--4--4---4--4--4---4--|
|--4--4---4--4--4---4-|--4--4---4--4--4---4--|
|
|---------------------|----------------------|
|---------------------|----------------------|
|-10-10--10-10-10--10-|-11-11--11-11-11--11--|
|--x--x---x--x--x---x-|--x--x---x--x--x---x--|
|--8--8---8--8--8---8-|--9--9---9--9--9---9--|
|---------------------|----------------------|

|---------------|---------------|----------------|-----------------|
|---------------|---------------|----------------|-----------------|
|---------------|---------------|----------------|-----------------|
|-8-8--8-8-8--8-|-8-8--5-6--6-4-|-4--4-4-4--4-10-|-(10)-8--6--5--3-|
|-6-6--6-6-6--6-|-6-6--3-4--4-4-|-4--4-4-4--4--8-|---8--6--4--3--1-|
|---------------|-------------4-|-4--4-4-4--4----|-----------------|
|
|---------------|---------------|----------------|-----------------|
|---------------|---------------|----------------|-----------------|
|---------------|---------------|----------------|-----------------|
|-1-1--1-1-1--1-|-1-1--5-6--6-4-|-4--4-4-4--4-10-|-(10)-8--6--5--3-|
|-1-1--1-1-1--1-|-1-1--3-4--4-4-|-4--4-4-4--4--8-|---8--6--4--3--1-|
|-1-1--1-1-1--1-|-1-1---------4-|-4--4-4-4--4----|-----------------|


Verse
|-1---2---2---1---2-----------|
|---2---2---2---2---2-1-2-4-6-|
|-----------------------------|
|-----------------------------|
|-----------------------------|
|-----------------------------|


Chorus
||------------------|-----------------|-----------------|--------------||
||o-----------------|-----------------|-----------------|-------------o||
||------------------|-----------------|-----------------|-8----6--5----||
||--4-4-4-4-4-4-4-4-|-6-6-6-6-6-6-6-6-|-8-8-8-8-8-8-8-8-|-x----x--x----||
||o-4-4-4-4-4-4-4-4-|-6-6-6-6-6-6-6-6-|-8-8-8-8-8-8-8-8-|-6----4--3---o||
||--4-4-4-4-4-4-4-4-|-6-6-6-6-6-6-6-6-|-8-8-8-8-8-8-8-8-|--------------||


|-----------------|---------------|
|-----------------|---------------|
|-----------------|---------------|
|-4-4-4-4-4-4-4-4-|-6-6-6-6-6-6-6-|
|-4-4-4-4-4-4-4-4-|-6-6-6-6-6-6-6-|
|-4-4-4-4-4-4-4-4-|-6-6-6-6-6-6-6-|


Solo
|----------------------------------------------------|
|------------------9-------------------------9-------|
|---6---6---6-8-10---10-8-6---6---6---6-8-10---10-5--|
|-8---8---8-----------------8---8---8----------------|
|----------------------------------------------------|
|----------------------------------------------------|


|-------------------------------------|
|-------------------------2-1---------|
|-1-3-3-------1-3-3-----------1-1-1-2-|
|-------x-x-x-------x-x-x-------------|
|-------------------------------------|
|-------------------------------------|


|-----------------------------------------------|
|-1-2-2-4-1-2-2-4-4-6-6-7-7-9-9-11--------------|
|----------------------------------10-8-6-8-10--|
|-----------------------------------------------|
|-----------------------------------------------|
|-----------------------------------------------|


* I Tabbed this song in drop A chord diagramD MajorD down 1 half step because that is what all of the old
ⓘ Guitar tab for 'King On Holiday' by Aiden, formed in 2003

Almost there ...

Sign in to get your own page with links to favourite songs and more. You are just one click away...

Login with Facebook Login with Google