Log in

One click and you are in

Login with Facebook Login with Google

Why sign up and log in

Guitar Tabs Explorer
Aiden tabs for Cold december

Guitar tabs

tis is a cool song from their first album
its an easy enough song to play
from sorsha obrien A chord diagramD MajorD TUNED
E------------------------
B------------------------
G------------------------
D-4444444---2222222---4444444--
A-4444444---2222222---2222222--
D-4444444---2222222-----------

both guitars

------------------------------
------------------------------
------------------------------
---44--------22-------------------
---44--------22-------------------
---44--------22-------------------

lead guitar
---------------------------
---------------------------
---------------------------
---11--13----14----99-99-99
---------------------------
---9---11----12----77-77-77

chorus first part but add on             6666666
77777  9999  88886                       4444444
55555  7777  66666

ⓘ Guitar tab for 'Cold December' by Aiden, formed in 2003

Almost there ...

Sign in to get your own page with links to favourite songs and more. You are just one click away...

Login with Facebook Login with Google