Log in

One click and you are in

Login with Facebook Login with Google

Why sign up and log in

Guitar Tabs Explorer
Christina Aguilera tabs for Im ok

Guitar tabs

This is my first Tab I've done myself so please excuse any mistakes....
if you want to point anything out to me you can email me at ginamarie83@hotmail.com


This is the main idea of the Intro and verse guitar tab (repeat as needed:

e|--------------2---------------------0-------------------0-----------
b|---------3—0-----3—0--------3—0---------3-0-------3-0------3-0------
g|--------------------------------------------------------------------
d|---4-----------------------------4----------------------------------
a|-2--------------------2-0-------------------------------------------
A chord diagramE MajorE|---------------------------------------------0-2-----------------0-2
---------0---------------------2-----------------------0--------------
-0-0-------0-0--------3-0-----------3-0--------3-0---------30---------
----------------------------------------------------------------------
------4--------------------4------------------------4-----------------
-----------------0-2----------------------2-0-------------------------
----------------------------------------------------------------0-3---


---------2--------------------0------------|
----3-0-----3-0-------0-0--------0-0-------|
-------------------------------------------|
-4-------------------------4---------------|
-------------------------------------0-2---|
-----------------0-2-----------------------|


Chorus Chords:

A chord diagramDmDm                           A chord diagramGmaj7Gmaj7
Bruises fade farther but the pain remains the same

A chord diagramBm/ABm/A                         F#7sus
But i still remember how you kept me so afraid

A chord diagramDmDm                           A chord diagramGmaj7Gmaj7
Strength is my mother for all the love she gave

A chord diagramGmaj7Gmaj7
and every morning that I wake

A chord diagramBm/ABm/A
I look Back and yesterday
<no guitar>
and I'm Ok

Chords:
Dm:
x x o
| | | | | O
| | | | O |
| | | | | 0
| | | | | |
| | | | | |

Gmaj7:
    o o o
| | | | | |
| O | | | O
O | | | | |
| | | | | |
| | | | | |

F#7sus:

| | | | | |
O | O | O O
| | | | | |
| O | O | |
| | | | | |

Bm/A:
x o
| | | | | |
| | | | | O
| | | | O |
| | O O | |
| | | | | |

Other versions of I'm Ok

I'm okChords
I'm ok (Ver. 2)Chords
I'm ok ukuleleChords

Almost there ...

Sign in to get your own page with links to favourite songs and more. You are just one click away...

Login with Facebook Login with Google