Log in

One click and you are in

Login with Facebook Login with Google

Why sign up and log in

Guitar Tabs Explorer
Christina Aguilera bass tabs for Fighter

Bass tabs

Tabbed By:Gary Hricewich
E-mail:snapper2001@msn.com


 Intro
G------|----|----|----|----|----|----|----|
D------|----|----|----|----|----|----|----|
A------|-3--|----|-2--|----|-3--|----|-2--|
E---0--|----|-5--|----|-0--|----|-5--|----|
   Verse       8x
G---|----------------------|
D---|*--------------------*|
A---|*--------------------*|
E---|--0-0-0-0-2-3---------|


 Bridge Start
G-------------------------------------------------------------|
D-------------------------------------------------------------|
A-------------------------------------------------------------|
E---5--5-5-5--5-5-5--5-5-5--5-5-5--5-5-5--5-5-5--5-5-5--5-5-5-|


G----------------------------|-------------------------------|
D----------------------------|-------------------------------|
A----------------------------|-------------------------------|
E---3-3-3-3-2-0--3-3-3-3-2-0-|-5--5-5-5--5-5-5--5-5-5--5-5-5-|


G----------------------------------------------------------------|
D----------------------------------------------------------------|
A---3--3-3-3--3-3-3--3-3-3--3-3-3--5--5-5-5--5-5-5--5-5-5--5-5-5-|
E----------------------------------------------------------------|

                  Bridge End
G----------------------------------------------|
D----------------------------------------------|
A---2--2-2-2--2-2-2--2-2-2--2-2-2--3-3-3-3-3-5-|
E----------------------------------------------|


   Chorus                       2x
G---|------------------------------------------------------|
D---|*----------------------------------------------------*|
A---|*--------------0-0-0-0-2-3--3-3-3-3-2-0--------------*|
E---|--0-0-0-0-2-3----------------------------3-3-3-3-2-0--|

    THEN PLAY: LEAD[SAME AS VERSE]4X /VERSE 8X /BRIDGE /CHORUS 2X /
         PIANO INTERLUDE[NO BASS] /CHORUS 6X /VOCALS[NO BASS]
/END

Other versions of Fighter

Fighter (Ver. 2)Bass tabs

Almost there ...

Sign in to get your own page with links to favourite songs and more. You are just one click away...

Login with Facebook Login with Google