Log in

One click and you are in

Login with Facebook Login with Google

Why sign up and log in

Guitar Tabs Explorer
Christina Aguilera bass tabs for Fighter (Ver. 2)

Bass tabs

Verse Riff
G|-----------------|-----------------|
D|-----------------|-----------------|
A|-----------------|-5---5-5--8--7---|
E|-0---0-0--0--3---|-----------------|


Pre-Chorus Riff
G|-----------------|-----------------|-----------------|-----------------|
D|-----------------|-----------------|-----------------|-----------------|
A|-----------------|-----------------|-----------------|-----------------|
E|-5-5-5-5-5-5-5-5-|-5-5-5-5-5-5-5-5-|-3---3-3--3--0---|-3---3-3--3--0---|

G|-----------------|-----------------|-----------------|-----------------|-----------------|
D|-----------------|-----------------|-----------------|-----------------|-----------------|
A|-----------------|---------------2-|-3-3-3-3-5-5-5-5-|-2-2-2-2-2-----2-|-3-3-3-3---------|
E|-5-5-5-5-5-5-5-5-|-5-5-5-5-5-5-5---|-----------------|-----------------|---------5-5-5-5-|


Chorus Riff
G|-----------------|-----------------|-----------------|-----------------|
D|-----------------|-----------------|-----------------|-----------------|
A|-----------------|---------------2-|-3-3-3-3-2-2-2-2-|-----------------|
E|-0-0-0-0-2-2-2-2-|-3-3-3-3-5-5-5---|-----------------|-5-5-3-2-0-------|


Bridge Riff (no bass in the original but this fits)
G|-----------------|-----------------|-----------------|-----------------|
D|-----------------|-----------------|-----------------|-----------------|
A|---------------5-|---3-------------|-2-------------3-|---3-----2-------| x2
E|-0---------------|-----------0-0---|-----5-------5---|-----------------|

Other versions of Fighter

FighterBass tabs

Almost there ...

Sign in to get your own page with links to favourite songs and more. You are just one click away...

Login with Facebook Login with Google