Log in

One click and you are in

Login with Facebook Login with Google

Why sign up and log in

Guitar Tabs Explorer
Agnes Chan bass tabs for Devoted to you

Bass tabs

Tuning: 1/4 step down.

0:04

G|----------------|
D|3-1---0---------|
A|----------4-3---|
E|----------------|

G|----------------------------------------------------------------|.
D|--------------------------------3-----------3-------------------|.
A|1-----------1---1-----------1-------------------1-----------1---|.
E|----------------------------------------------------------------|.
                                  .
G|----------------------------------------------------------------|.
D|--------------------------------3-----------3-------------------|.
A|1-----------1---1-----------1-------------------1-----------1---|.
E|----------------------------------------------------------------|.
                                  . x2
G|----------------------------------------------------------------|.
D|1-----------1---0-----------0-----------------------------------|.
A|--------------------------------3-----------3---1-----------1---|.
E|----------------------------------------------------------------|.
                                  .
G|----------------------------------------------------------------|.
D|1-----------1---3-1---0-----------------------------------------|.
A|--------------------------4-3-------------------1-----------1---|.
E|--------------------------------1-------------------------------|.

0:50

G|----------------------------------------------------------------|
D|--------------------------------0-----------0---5-----------5---|
A|3-----------3---3-----------3-----------------------------------|
E|----------------------------------------------------------------|

G|----------------------------------------------------------------|
D|----------------3-----------3-----------------------------------|
A|3-----------3-------------------1-----------1---1---1-----1-1---|
E|----------------------------------------------------------------|

G|----------------------------------------------------------------|
D|--------------------------------0-----------0---5-----------5---|
A|3-----------3---3-----------3-----------------------------------|
E|----------------------------------------------------------------|

G|----------------------------------------------------------------|
D|--------------------------------3---------------3-1---0---------|
A|3-----------3---3---3-------3-----------------------------4-3---|
E|----------------------------------------------------------------|

1:11

G|----------------------------------------------------------------|
D|--------------------------------3-----------3-------------------| x2
A|1-----------1---1-----------1-------------------1-----------1---|
E|----------------------------------------------------------------|

G|----------------------------------------------------------------|
D|1-----------1---0-----------0-----------------------------------|
A|--------------------------------3-----------3---1-----------1---|
E|----------------------------------------------------------------|

G|----------------------------------------------------------------|
D|1-----------1---3-1---0-----------------------------------------|
A|----------------------------3-------------------1-----------1---|
E|--------------------------------1-------------------------------|

1:33

G|----------------------------------------------------------------|
D|--------------------------------0-----------0---5-----------5---|
A|3-----------3---3-----------3-----------------------------------|
E|----------------------------------------------------------------|

G|----------------------------------------------------------------|
D|----------------3-----------3-----------------------------------|
A|3-----------3-------------------1-----------1---1---1-------1---|
E|----------------------------------------------------------------|

G|----------------------------------------------------------------|
D|--------------------------------0-----------0---5-----------5---|
A|3-----------3---3-----------3-----------------------------------|
E|----------------------------------------------------------------|

G|----------------------------------------------------------------|
D|--------------------------------3---------------3-1---0---------|
A|3-----------3---3---3-------3-----------------------------4-3---|
E|----------------------------------------------------------------|

1:55

G|----------------------------------------------------------------|
D|--------------------------------3-----------3-------------------| x2
A|1-----------1---1-----------1-------------------1-----------1---|
E|----------------------------------------------------------------|

G|----------------------------------------------------------------|
D|1-----------1---0-----------0-----------------------------------|
A|--------------------------------3-----------3---1-----------1---|
E|----------------------------------------------------------------|

G|------------------------------------|
D|1-----------1---3-1---0-------------|
A|--------------------------4-3-------|

Almost there ...

Sign in to get your own page with links to favourite songs and more. You are just one click away...

Login with Facebook Login with Google