Log in

One click and you are in

Login with Facebook Login with Google

Why sign up and log in

Guitar Tabs Explorer
Agnes Chan bass tabs for Day is done

Bass tabs

Tuning: EADG

0:28

G|4-------2---------------|
D|----------------5-------|
A|------------------------|
E|------------------------|

G|----------------------------------------------------------------|
D|----------------------------3---5-----------5---5---------------|
A|3-----------3---3-------5-------------------------------0---3---|
E|----------------------------------------------------------------|

G|----------------------------------------4-------2---------------|
D|----------------7---------------5-----------------------5-------|
A|5-----------5---------------5-----------------------------------|
E|----------------------------------------------------------------|

G|----------------------------------------------------------------|
D|----------------------------3---5-----------5---5---------------|
A|3-----------3---3-------5-------------------------------0---3---|
E|----------------------------------------------------------------|

G|----------------------------------------------------------------|
D|----------------------------3---5-----------5---5---------------|
A|5-----------5---5-------5-------------------------------0---3---|
E|----------------------------------------------------------------|

0:45

G|----------------------------------------------------------------|
D|----------------7-----------7-------------------7---------------|
A|5-----------5-------------------5-----------5---------------5---|
E|----------------------------------------------------------------|

G|----------------------------------------------------------------|
D|5-----------5---5---------------5-----------5---5---------------|
A|----------------------------5---------------------------0---4---|
E|----------------------------------------------------------------|

G|----------------------------------------------------------------|
D|----------------7-----------7-------------------------------3---|
A|5-----------5-------------------5-----------5---5-------5-------|
E|----------------------------------------------------------------|

G|----------------------------------------------------------------|
D|5-----------5---5---------------5---------------2-------4-------|
A|----------------------------5-----------5-----------------------|
E|----------------------------------------------------------------|

1:00

G|----------------------------------------------------------------|
D|5-----------5---5-----------5---7-----------7---7-------7-------|
A|------------------------------------------------------------7---|
E|----------------------------------------------------------------|

G|----------------------------------------------------------------|
D|----------------------------3---5-----------5---5-------5---4---|
A|5-----------5---5-------5---------------------------------------|
E|----------------------------------------------------------------|

G|----------------------------------------------------------------|
D|------------------------5---6---7-----------7---7-----------7---|
A|7-----------7---7-----------------------------------------------|
E|----------------------------------------------------------------|

G|----------------------------------------------------------------|
D|9-----------9---9-----------4---------------------------5-------|
A|------------------------5-------3-----------3---3-----------7---|
E|----------------------------------------------------------------|

G|----------------------------------------------------------------|
D|7-----------7---7-----------3-------------------------------3---|
A|------------------------5-------5-----------5---5-------5-------|
E|----------------------------------------------------------------|

G|----------------------------------------4-------2---------------|
D|5-----------5---5---------------5-----------------------5-------|
A|----------------------------5-----------------------------------|
E|----------------------------------------------------------------|

1:22

G|----------------------------------------------------------------|
D|----------------------------3---5-----------5---5---------------|
A|3-----------3---3-------5-------------------------------0---3---|
E|----------------------------------------------------------------|

G|----------------------------------------4-------2---------------|
D|----------------------------3---5-----------------------5-------|
A|5-----------5---5-------5---------------------------------------|
E|----------------------------------------------------------------|

G|----------------------------------------------------------------|
D|----------------------------3---5-----------5---5---------------|
A|3-----------3---3-------5-------------------------------0---3---|
E|----------------------------------------------------------------|

G|----------------------------------------------------------------|
D|----------------------------3---5-----------5---5---------------|
A|5-----------5---5-------5-------------------------------0---3---|
E|----------------------------------------------------------------|

1:37

G|----------------------------------------------------------------|
D|----------------7-----------7-------------------7---------------|
A|5-----------5-------------------5-----------5---------------5---|
E|----------------------------------------------------------------|

G|----------------------------------------------------------------|
D|5-----------5---5---------------5-----------5---5---------------|
A|----------------------------5---------------------------0---4---|
E|----------------------------------------------------------------|

G|----------------------------------------------------------------|
D|----------------7-----------7-------------------------------3---|
A|5-----------5-------------------5-----------5---5-------5-------|
E|----------------------------------------------------------------|

G|----------------------------------------------------------------|
D|5-----------5---5---------------5---------------2-------4-------|
A|----------------------------5-----------5-----------------------|
E|----------------------------------------------------------------|

1:52

G|----------------------------------------------------------------|
D|5-----------5---5-----------5---7-----------7---7-------7-------|
A|------------------------------------------------------------7---|
E|----------------------------------------------------------------|

G|----------------------------------------------------------------|
D|----------------------------3---5-----------5---5-------5---4---|
A|5-----------5---5-------5---------------------------------------|
E|----------------------------------------------------------------|

G|----------------------------------------------------------------|
D|------------------------5---6---7-----------7---7-----------7---|
A|7-----------7---7-----------------------------------------------|
E|----------------------------------------------------------------|

G|----------------------------------------------------------------|
D|9-----------9---9-----------5-------------------------------4---|
A|------------------------5-------3-----------3---3-------5-------|
E|----------------------------------------------------------------|

G|----------------------------------------------------------------|
D|7-----------7---7-----------2-------------------------------3---|
A|------------------------5-------5-----------5---5-------5-------|
E|----------------------------------------------------------------|

G|----------------------------------------4-------2---------------|
D|5-----------5---5---------------5-----------------------5-------|
A|----------------------------5-----------------------------------|
E|----------------------------------------------------------------|

2:15

G|----------------------------------------------------------------|
D|----------------------------3---5-----------5---5---------------|
A|3-----------3---3-------5-------------------------------0---3---|
E|----------------------------------------------------------------|

G|----------------------------------------4-------2---------------|
D|----------------------------3---5-----------------------5-------|
A|5-----------5---5-------5---------------------------------------|
E|----------------------------------------------------------------|

G|----------------------------------------------------------------|
D|----------------------------3---5-----------5---5---------------|
A|3-----------3---3-------5-------------------------------0---3---|
E|----------------------------------------------------------------|

G|----------------------------------------------------------------|
D|----------------------------3---5-----------5---5---------------|
A|5-----------5---5-------5-------------------------------0---3---|
E|----------------------------------------------------------------|

2:30

G|----------------------------------------------------------------|
D|----------------7-----------7-------------------7---------------|
A|5-----------5-------------------5-----------5-----------0---5---|
E|----------------------------------------------------------------|

G|----------------------------------------------------------------|
D|5-----------5---5---------------5-----------5---5---------------|
A|----------------------------5---------------------------0---3---|
E|----------------------------------------------------------------|

G|----------------------------------------------------------------|
D|----------------7-----------7-------------------7---------------|
A|5-----------5-------------------5-----------5-----------0---5---|
E|----------------------------------------------------------------|

G|----------------------------------------4-------2---------------|
D|5---------------5---------------5-----------------------5-------|
A|------------5---------------5-----------------------------------|
E|----------------------------------------------------------------|

2:45 Until fadeout.

G|----------------------------------------------------------------|
D|----------------------------3---5-----------5---5---------------|
A|3-----------3---3-------5-------------------------------0---3---|
E|----------------------------------------------------------------|

G|----------------------------------------4-------2---------------|
D|----------------------------3---5-----------------------5-------|
A|5-----------5---5-------5---------------------------------------|

Almost there ...

Sign in to get your own page with links to favourite songs and more. You are just one click away...

Login with Facebook Login with Google