Log in

One click and you are in

Login with Facebook Login with Google

Why sign up and log in

Guitar Tabs Explorer
Agnee tabs for Aahatein

Solo tabs

e|-------------------------------------|
b|-------------------------------------|
g|------------------------10s12~-------|
d|---------------12-10~----------------|
a|---------10-12-----------------------|
e|-8s10-12-----------------------------|

e|------------------------------------------------------------|
b|------------------------------------------15~---------------|
g|--14^(2 fret bend,stay nd down)-14p12--14-------------------|
d|------------------------------------------------------------|
a|------------------------------------------------------------|
e|------------------------------------------------------------|

e|-------------------------------------15-14-----|
b|-12h13-13-13-13-12----------13----13-----------|
g|-------------------14-12-------12--------------|
d|-------------------------14--------------------|
a|-----------------------------------------------|
e|-----------------------------------------------|

e|----------------------------------------------------|
b|----------------------------------------------------|
g|----------------------------------------------------|
d|----------------------------------------------------|
a|-12-15-14-----14-12-----12--------12--------12~-----|
e|-----------15--------14----15--12----15--14---------|

Last part is a bit fast.

e|---------------------------------------------------|
b|-------------12h13h15--15p13p12--13p12-------------|
g|-------12h14---------------------------------------|
d|-12h14---------------------------------------------|
a|---------------------------------------------------|
e|---------------------------------------------------|

e|-----------------------------------------------|
b|-----------------------------------------13s15-|
g|-11h12h14p12p11--12p11-------------------------|
d|-----------------------14-12-10-12-14-12-------|
a|-----------------------------------------------|
e|-----------------------------------------------|


***********************************
| s   Slide up
| h   Hummer-on
| p   Pull-off
| ~   Vibrato
| +   Harmonic
| ^   Bend

ⓘ Guitar tab for 'Aahatein' by Agnee, a mixed world/ethnic artist from Pune, India. Agnee was born in 2006.

Almost there ...

Sign in to get your own page with links to favourite songs and more. You are just one click away...

Login with Facebook Login with Google