Log in

One click and you are in

Login with Facebook Login with Google

Why sign up and log in

Guitar Tabs Explorer
Age Of Electric bass tabs for Remote control

Bass tabs

Band: Age Of Electric
pathway@pathcom.com

tune down half a step

Intro is guitar


Main Verse

     X 6		  X 2		  X 4

G  ----------------|----------------|------------------
D  ----------------|----------------|------------------
A  3-3-3-3-3-3-3-3-|----------------|3-3-3-3-3-3-3-----
E  ----------------|4-4-4-4-4-4-4-4-|------------------


     X 2		  X 2		  X 2

G  ----------------|--------------|---------------
D  ----------------|--------------|---------------
A  ----------------|3-3-3-3-3-3-3-|---------------
E  4-4-4-4-4-4-4-4-|--------------|1-1-1-1-1-1-1-1



Chorus X 8


G  --------------------------------------------------
D  --------------------------------------------------
A  ---------6-6-6-6----------------------------------
E  4-4-4-4-----------6-6-6-6-6-6-6-6-----------------

Almost there ...

Sign in to get your own page with links to favourite songs and more. You are just one click away...

Login with Facebook Login with Google