Log in

One click and you are in

Login with Facebook Login with Google

Why sign up and log in

Guitar Tabs Explorer
Agar Agar bass tabs for Prettiest virgin

Bass tabs

  • Difficulty: Beginner
Tuning: Half-Step Down (Eb Ab Db Gb)

Tune half step down to match key of the song.
Bass part stays the same and repeats for the whole song. Listen to song for rhythm.
Can swap the Gs(6s) on the D string for Cs(6s) on G string instead, mix it up between the two or ignore them
entirely. Play with octaves when doing the C Bb Ab part. Enjoy


Intro:

G|--------------------------------------------------------------------------|
D|----6--6-----6-------------------------6-----6------6---------------------|
A|-4----4---4-----4-4-2---------------4-------4-----4-----4-4-2-------------|
E|----------------------5---4-2--0------------------------------5----4--2--0|x16


Outro:
G|--------------------------------------------------------------------------|
D|----6--6-----6------------------------------------------------------------|
A|-4----4---4-----4-4-2-----------------------------------------------------|
E|----------------------5---4-2--0------------------------------------------|

************************************

ⓘ Bass guitar tab for 'Prettiest Virgin' by Agar Agar, an electronic band from Paris

Almost there ...

Sign in to get your own page with links to favourite songs and more. You are just one click away...

Login with Facebook Login with Google