Log in

One click and you are in

Login with Facebook Login with Google

Why sign up and log in

Guitar Tabs Explorer
Against The Current bass tabs for Roses

Bass tabs

[Intro]

G|---------------------------------------------------------------------|
D|--------------------2-2-2-2-2-2-2-2-0-0-0-0-0-0-0-0-0-0-0-0-0-0-0-0--|
A|--5\0-0-0-0-0-0-0-0--------------------------------------------------| x2
E|---------------------------------------------------------------------|
[Verse]

G|-------------------------------------------------------------------|
D|------------------2-2-2-2-2-2-2-2-0-0-0-0-0-0-0-0-0-0-0-0-0-0-0-0--|
A|--0-0-0-0-0-0-0-0--------------------------------------------------| x2
E|-------------------------------------------------------------------|

G|-------------------------------------------------------------------|
D|-------------------------------------------------0-0-0-0-0-0-0-0---|
A|-0-0-0-0-0-0-0-0-----------------0-0-0-0-0-0-0-0-------------------|
E|-----------------4-4-4-4-4-4-4-4-----------------------------------|

G|-------------------------------------------------------------------|
D|------------------2-2-2-2-2-2-2-2-0-0-0-0-0-0-0-0-0-0-0-0-0-0-0-0--|
A|--0-0-0-0-0-0-0-0--------------------------------------------------|
E|-------------------------------------------------------------------|


[Chorus] Don't play until after main part of chorus

G|-------------------------------------------------------------------|
D|-0-0-0-0-0-0-0-0---------------------------------------------------|
A|-----------------0-0-0-0-0-0-0-0-----------------------------------| x2
E|---------------------------------0-0-0-0-0-0-0-0-2-2-2-2-2-2-2-2---|


[Verse]

G|-------------------------------------------------------------------|
D|------------------2-2-2-2-2-2-2-2-0-0-0-0-0-0-0-0-0-0-0-0-0-0-0-0--|
A|--0-0-0-0-0-0-0-0--------------------------------------------------| x2
E|-------------------------------------------------------------------|

G|-2-2-2-2-2-2-2-2-1-1-1-1-1-1-1-1-----------------------------------|
D|---------------------------------4-4-4-4-4-4-4-4-0-0-0-0-0-0-0-0---|
A|-------------------------------------------------------------------|
E|-------------------------------------------------------------------|

G|-------------------------------------------------------------------|
D|------------------2-2-2-2-2-2-2-2-0-0-0-0-0-0-0-0-0-0-0-0-0-0-0-0--|
A|--0-0-0-0-0-0-0-0--------------------------------------------------|
E|-------------------------------------------------------------------|


[Chorus]

G|-------------------------------------------------------------------|
D|-0-0-0-0-0-0-0-0---------------------------------------------------|
A|-----------------0-0-0-0-0-0-0-0-----------------------------------| x6
E|---------------------------------0-0-0-0-0-0-0-0-2-2-2-2-2-2-2-2---|

No bass until chorus again


[Chorus]

G|-------------------------------------------------------------------|
D|-0-0-0-0-0-0-0-0---------------------------------------------------|
A|-----------------0-0-0-0-0-0-0-0-----------------------------------| x6
E|---------------------------------0-0-0-0-0-0-0-0-2-2-2-2-2-2-2-2---|

************************************

\ Slide down

ⓘ Bass guitar tab for 'Roses' by Against The Current, a pop-rock band formed in 2011 from Poughkeepsie, NY,USA

Almost there ...

Sign in to get your own page with links to favourite songs and more. You are just one click away...

Login with Facebook Login with Google