Log in

One click and you are in

Login with Facebook Login with Google

Why sign up and log in

Guitar Tabs Explorer
Against The Current bass tabs for Outsiders

Bass tabs

Tuning: Standard (E A D G)

Difficulty: Intermediate


Intro:

Slide in when the drums come in

G|-----|
D|-----|
A|-----|
E|-12\-|
Verse:

G|-----------------|-----------------|-------------------|-----------------|
D|-----------------|-----------------|-------------------|-----------------|
A|-0-0-0-0-0-0-0-0-|-0-0-0-0-4-4-4-4-|-5-5-5-5-5-5-5-5-5-|-5-5-5-5-5-7-5-0-| X4
E|-----------------|-----------------|-------------------|-----------------|


Pre-Chorus:

G|----|----------|----|----------|-----------------|
D|----|----------|----|----------|-----------------|
A|-9~-|-(9~)---7-|-5~-|-(5~)-5-7-|-9-9-9-9-9-9-9-9-|
E|----|----------|----|----------|-----------------|
  Hold 9 and 5 for 7 counts

G|-----------------|-----------------|-----------------|----|
D|-----------------|-----------------|-----------------|----|
A|-9-9-9-9-9-9-9-9-|-5-5-5-5-5-5-5-5-|-5-5-5-5-5-5-5-5-|-5\-|
E|-----------------|-----------------|-----------------|----|

Chorus:

G|-----|------------------|-----|-------------------|-----|
D|-----|------------------|-----|-------------------|-----|
A|-----|-0-0-0-0-0-0-0-0~-|-2-4-|-5~-5-5-5-5-5-5-5\-|-4-5-|
E|-12\-|------------------|-----|-------------------|-----|
              * *            * *

G|-------------------|-----|-----------------|-----|-----------------|
D|-------------------|-----|-----------------|-----|-----------------|
A|-0~-0-0-0-0-0-0-0~-|-2-4-|-5~-5-5-5-5-5-5\-|-5-7-|-9~-9-9-9-9-9-9\-|
E|-------------------|-----|-----------------|-----|-----------------|
            * *           * *

G|-----|-------------------|-----|-------------------|-----|-------------------|
D|-----|-------------------|-----|-------------------|-----|-------------------|
A|-2-4-|-5~-5-5-5-5-5-5-5\-|-5-7-|-9~-9-9-9-9-9-9-9\-|-2-4-|-5~-5-5-5-5-5-5-5\-|
E|-----|-------------------|-----|-------------------|-----|-------------------|
  * *            * *            * *


Verse:

G|-----|
D|-----| Only slide when going into the start of the chorus
A|-----|
E|-12\-|

G|-----------------|-----------------|-------------------|-----------------|
D|-----------------|-----------------|-------------------|-----------------|
A|-0-0-0-0-0-0-0-0-|-0-0-0-0-4-4-4-4-|-5-5-5-5-5-5-5-5-5-|-5-5-5-5-5-7-5-0-| X3
E|-----------------|-----------------|-------------------|-----------------|

G|-----------------|-----------------|-------------------|---------------|
D|-----------------|-----------------|-------------------|---------------|
A|-0-0-0-0-0-0-0-0-|-0-0-0-0-4-4-4-4-|-5-5-5-5-5-5-5-5-5-|-5-5-5-5-5-5-5-|
E|-----------------|-----------------|-------------------|---------------|


Pre-Chorus:

G|----|----------|----|----------|-----------------|
D|----|----------|----|----------|-----------------|
A|-9~-|-(9~)---7-|-5~-|-(5~)-5-7-|-9-9-9-9-9-9-9-9-|
E|----|----------|----|----------|-----------------|
  Hold 9 and 5 for 7 counts

G|-----------------|-----------------|-----------------|----|
D|-----------------|-----------------|-----------------|----|
A|-9-9-9-9-9-9-9-9-|-5-5-5-5-5-5-5-5-|-5-5-5-5-5-5-5-5-|-5\-|
E|-----------------|-----------------|-----------------|----|


Chorus:

G|-----|------------------|-----|-------------------|-----|
D|-----|------------------|-----|-------------------|-----|
A|-----|-0-0-0-0-0-0-0-0~-|-2-4-|-5~-5-5-5-5-5-5-5\-|-4-5-|
E|-12\-|------------------|-----|-------------------|-----|
              * *            * *

G|-------------------|-----|-----------------|-----|-----------------|
D|-------------------|-----|-----------------|-----|-----------------|
A|-0~-0-0-0-0-0-0-0~-|-2-4-|-5~-5-5-5-5-5-5\-|-5-7-|-9~-9-9-9-9-9-9\-|
E|-------------------|-----|-----------------|-----|-----------------|
            * *           * *

G|-----|-------------------|-----|-------------------|-----|-----------------|
D|-----|-------------------|-----|-------------------|-----|-----------------|
A|-2-4-|-5~-5-5-5-5-5-5-5\-|-5-7-|-9~-9-9-9-9-9-9-9\-|-2-4-|-5~-5-5-5-5-5-5/-|
E|-----|-------------------|-----|-------------------|-----|-----------------|
  * *            * *            * *


Bridge:

G|--------------------------|-----------------|------------------|
D|-12-12-12-12-12-12-12-12\-|-----------------|------------------|
A|--------------------------|-9-9-9-9-9-9-9-9-|-9-9-9-9-9-9-9-9\-|
E|--------------------------|-----------------|------------------|

G|-----------------|------------------|-----------------|------------------|
D|-----------------|------------------|-----------------|------------------|
A|-5-5-5-5-5-5-5-5-|-5-5-5-5-5-5-5-5/-|-9-9-9-9-9-9-9-9-|-9-9-9-9-9-9-9-9\-|
E|-----------------|------------------|-----------------|------------------|

G|-----------------|------------------|-----------------|------------------|
D|-----------------|------------------|-----------------|------------------|
A|-5-5-5-5-5-5-5-5-|-5-5-5-5-5-5-5-5/-|-9-9-9-9-9-9-9-9-|-9-9-9-9-9-9-9-9\-|
E|-----------------|------------------|-----------------|------------------|

G|-----------------|------------------|-----------------|------------------|
D|-----------------|------------------|-----------------|------------------|
A|-5-5-5-5-5-5-5-5-|-5-5-5-5-5-5-5-5/-|-9-9-9-9-9-9-9-9-|-9-9-9-9-9-9-9-9\-|
E|-----------------|------------------|-----------------|------------------|

G|-----------------|------------------|------|
D|-----------------|------------------|------|
A|-5-5-5-5-5-5-5-5-|-5-5-5-5-5-5-5-5~-|-(5~)-| Rest and then slide into chorus just after the drum fill starts
E|-----------------|------------------|------|


Chorus:

G|-----|------------------|-----|-------------------|-----|
D|-----|------------------|-----|-------------------|-----|
A|-----|-0-0-0-0-0-0-0-0~-|-2-4-|-5~-5-5-5-5-5-5-5\-|-4-5-|
E|-12\-|------------------|-----|-------------------|-----|
              * *            * *

G|-------------------|-----|-----------------|-----|-----------------|
D|-------------------|-----|-----------------|-----|-----------------|
A|-0~-0-0-0-0-0-0-0~-|-2-4-|-5~-5-5-5-5-5-5\-|-5-7-|-9~-9-9-9-9-9-9\-|
E|-------------------|-----|-----------------|-----|-----------------|
            * *           * *

G|-----|-------------------|-----|-------------------|-----|-----------------|
D|-----|-------------------|-----|-------------------|-----|-----------------|
A|-2-4-|-5~-5-5-5-5-5-5-5\-|-5-7-|-9~-9-9-9-9-9-9-9\-|-2-4-|-5~-5-5-5-5-5-5\-|
E|-----|-------------------|-----|-------------------|-----|-----------------|
  * *            * *            * *


NOTE: The notes in the brackets are being held from the previous bar


************************************

| / Slide up
| \ Slide down
| * Staccato
| ~ Sustain

************************************
ⓘ Bass guitar tab for 'Outsiders' by Against The Current, a pop-rock band formed in 2011 from Poughkeepsie, NY,USA

Almost there ...

Sign in to get your own page with links to favourite songs and more. You are just one click away...

Login with Facebook Login with Google