Log in

One click and you are in

Login with Facebook Login with Google

Why sign up and log in

Guitar Tabs Explorer
Against The Current bass tabs for Chasing ghosts

Chasing Ghosts bass tab by Against The Current

Against The Current bass tabs for Chasing ghosts

Bass tabs

Intro:
G|--------------------|
D|--------------------|
A|-----------5---2----|
E|---2---5------------|
Verse:
G|--------------------|
D|--------------------| x2
A|-----------5---2----|
E|---2---5------------|

G|--------------------|
D|--------------------| x2
A|--------------------|
E|--------------------|


Chorus:
G|--------------------|
D|--------------------| x2
A|-------5-------7----|
E|---2-------5--------|

G|--------------------|
D|--------------------|
A|-------5------------|
E|---2-------5--------|


Verse:
G|--------------------|
D|--------------------| x4
A|--------------------|
E|--------------------|


Chorus:
G|--------------------|
D|--------------------| x4
A|-------5-------7----|
E|---2-------5--------|


Bridge:
G|--------------------|
D|--------------------| x2
A|--------------------|
E|--------------------|


Chorus:
G|--------------------|
D|--------------------| x3
A|-------5-------7----|
E|---2-------5--------|

G|--------------------|
D|--------------------|
A|-------5------------|

ⓘ Bass guitar tab for 'Chasing Ghosts' by Against The Current, a pop-rock band formed in 2011 from Poughkeepsie, NY,USA

Almost there ...

Sign in to get your own page with links to favourite songs and more. You are just one click away...

Login with Facebook Login with Google