Log in

One click and you are in

Login with Facebook Login with Google

Why sign up and log in

Guitar Tabs Explorer
The Afters tabs for Thank god im not the one

Guitar tabs

Album: I Wish We All Could Win (2005)
Tab by: Jonathan Laman (jlaman@memphis.edu)
This tab is my own work.

Verse 1: "How could you walk ..."


E-2-----------------------------3---------------3-------------
B-3-----------------------------1---------------0-------------
G-2-----------------------------2---------------2-------------
D-0-----------------------------0---------------0-------------
A-------------------------------------------------------------
E-------------------------------------------------------------


E-2-----------------------------3---------------3-------------
B-3-----------------------------0---------------0-------------
G-2-----------------------------2---------------2-------------
D-0-----------------------------0---------------0-------------
A-------------------------------------------------------------
E-------------------------------------------------------------


E-2-----------------------------------3---------------3-------
B-3---------------------------------1---------------0---------
G-2-------------------------------2---------------2-----------
D-0-----------------------------0---------------0-------------
A-------------------------------------------------------------
E-------------------------------------------------------------


E-2-----------------------------3---------------3--3--3--3--3-
B-3-----------------------------0---------------0--0--0--0--0-
G-2-----------------------------2---------------2--2--2--2--2-
D-0-----------------------------0---------------0--0--0--0--0-
A-------------------------------------------------------------
E-------------------------------------------------------------


Chorus: "True as true can be ..."


E-3-3-3-3-3-3-0-0-0-0-0-0-2------------------0---------------
B-0-0-0-0-0-0-0-0-0-0-0-0-3---3---2---3------2---3---2---3---
G-0-0-0-0-0-0-0-0-0-0-0-0-4-4---4---4---4----2-2---2---2---2-
D-0-0-0-0-0-0-2-2-2-2-2-2-4------------------2---------------
A-2-2-2-2-2-2-2-2-2-2-2-2-2------------------0---------------
E-3-3-3-3-3-3-0-0-0-0-0-0------------------------------------


E-2-2-2-2-2-2-0-0-0-0-0-0-3----------------------------------
B-3-3-3-3-3-3-2-2-2-2-2-2-0-----0-0-0h1-0--------0-0h1-0-----
G-2-2-2-2-2-2-2-2-2-2-2-2-0---------------2-0------------2-0-
D-0-0-0-0-0-0-2-2-2-2-2-2-0----------------------------------
A-------------0-0-0-0-0-0-2----------------------------------
E-------------------------3----------------------------------


E-2-2-2-2-2-2-0-0-0-0-0-0-3----------------------------------
B-3-3-3-3-3-3-2-2-2-2-2-2-0----------------------------------
G-2-2-2-2-2-2-2-2-2-2-2-2-0----------------------------------
D-0-0-0-0-0-0-2-2-2-2-2-2-0----------------------------------
A-------------0-0-0-0-0-0-2----------------------------------
E-------------------------3----------------------------------


Verse 2: "How could you hang on ..."

E-2-----------------------------------3---------------3-------
B-3---------------------------------1---------------0---0-----
G-2-------------------------------2---------------2-------2---
D-0-----------------------------0---------------0-------------
A-------------------------------------------------------------
E-------------------------------------------------------------


E-2-----------------------------3---0-----0-------0------0----
B-3-----------------------------1-----3-----3-------3------3--
G-2-----------------------------2-2-----2-------2------2------
D-0-----------------------------0-----------------------------
A-------------------------------------------------------------
E-------------------------------------------------------------


E-2-----------------------------------3---------------3-------
B-3---------------------------------1---------------0---0-----
G-2-------------------------------2---------------2-------2---
D-0-----------------------------0---------------0-------------
A-------------------------------------------------------------
E-------------------------------------------------------------


E-2-----------------------------3---------------3--3--3--3--3-
B-3-----------------------------0---------------0--0--0--0--0-
G-2-----------------------------2---------------2--2--2--2--2-
D-0-----------------------------0---------------0--0--0--0--0-
A-------------------------------------------------------------
E-------------------------------------------------------------


Chorus: "True as true can be ..."


E-3-3-3-3-3-3-0-0-0-0-0-0-2------------------0---------------
B-0-0-0-0-0-0-0-0-0-0-0-0-3---3---2---3------2---3---2---3---
G-0-0-0-0-0-0-0-0-0-0-0-0-4-4---4---4---4----2-2---2---2---2-
D-0-0-0-0-0-0-2-2-2-2-2-2-4------------------2---------------
A-2-2-2-2-2-2-2-2-2-2-2-2-2------------------0---------------
E-3-3-3-3-3-3-0-0-0-0-0-0------------------------------------


E-2-2-2-2-2-2-0-0-0-0-0-0-3----------------------------------
B-3-3-3-3-3-3-2-2-2-2-2-2-0-----0-0-0h1-0--------0-0h1-0-----
G-2-2-2-2-2-2-2-2-2-2-2-2-0---------------2-0------------2-0-
D-0-0-0-0-0-0-2-2-2-2-2-2-0----------------------------------
A-------------0-0-0-0-0-0-2----------------------------------
E-------------------------3----------------------------------


E-2-2-2-2-2-2-0-0-0-0-0-0-3----------------------------------
B-3-3-3-3-3-3-2-2-2-2-2-2-0-----0-0-0h1-0--------0-0h1-0-----
G-2-2-2-2-2-2-2-2-2-2-2-2-0---------------2-0------------2-0-
D-0-0-0-0-0-0-2-2-2-2-2-2-0----------------------------------
A-------------0-0-0-0-0-0-2----------------------------------
E-------------------------3----------------------------------


Bridge: "All the things we think of as eternal..."


E-2-----------2-------------0-------------0--------------------
B-3-----------2-------------0-------------0--------------------
G-4-----------3-------------1-------------1--------------------
D-4-----------4-------------2-------------2--------------------
A-2-----------4-------------2-------------2--------------------
E-------------2-------------0-------------0--------------------


E-3-----------3-------------0-0-0------------------------------
B-0-----------0-------------2-2-2------------------------------
G-0-----------0-------------2-2-2------------------------------
D-0-----------0-------------2-2-2------------------------------
A-2-----------2-------------0-0-0------------------------------
E-3-----------3------------------------------------------------


Solo:


E-2-----------0-------------0-------------0-0-0----------------
B-3-----------3-------------3-------------2-2-2----------------
G-2-----------0-------------0-------------2-2-2----------------
D-0-----------2-------------0-------------2-2-2----------------
A-------------3-------------2-------------0-0-0----------------
E--------------------------------------------------------------


E---------10-/12-----12-----12--10-----10-----------10---------
B-7h8-/10------------------------------------------------------
G----------------12-----12----------12-----------12----12------
D--------------------------------------------------------------
A--------------------------------------------------------------
E--------------------------------------------------------------


E---------10-/12-----12-----12--10-----10-----------10---------
B-7h8-/10------------------------------------------------------
G----------------11-----11----------11-----------11----11------
D--------------------------------------------------------------
A--------------------------------------------------------------
E--------------------------------------------------------------

                                         "If I had been a.."
E-------------10-/12-----/14----/15---/17----------------------
B-7h8-/10------------------------------------------------------
G--------------------------------------------------------------
D--------------------------------------------------------------
A--------------------------------------------------------------
E--------------------------------------------------------------


"round ..."
E-0-------------------------3----------------------------------
B-2-------------------------0-------0-0h1-0--------0-0h1-0-----
G-2-------------------------0---------------2-0------------2-0-
D-2-------------------------0----------------------------------
A-0-------------------------2----------------------------------
E---------------------------3----------------------------------


Bridge: "All the things we think of as eternal ..."


E-2-----------2-------------0-------------0--------------------
B-3-----------2-------------0-------------0--------------------
G-4-----------3-------------1-------------1--------------------
D-4-----------4-------------2-------------2--------------------
A-2-----------4-------------2-------------2--------------------
E-------------2-------------0-------------0--------------------


E-3-----------3-------------0--0--0-------0--------------------
B-0-----------0-------------2--2--2-------2--------------------
G-0-----------0-------------2--2--2-------2--------------------
D-0-----------0-------------2--2--2-------2--------------------
A-2-----------2-------------0--0--0-------0--------------------
E-3-----------3------------------------------------------------


Outro: "Thank God I'm not the one"


E-0-----------0-------------0-------------0-------------0------
B-3-----------3-------------3-------------3-------------3------
G-2-----------0-------------0-------------0-------------0------
D-0-----------0-------------0-------------0-------------0------
A-0-----------3-------------2-------------1-------------3------
E--------------------------------------------------------------

Almost there ...

Sign in to get your own page with links to favourite songs and more. You are just one click away...

Login with Facebook Login with Google