Log in

One click and you are in

Login with Facebook Login with Google

Why sign up and log in

Guitar Tabs Explorer
Afi tabs for The leaving song part two

Guitar tabs

Title: The Leaving Song Part Two
Album: Sing the Sorrow


Intro
Eb--------19----17------------14h15p14----
Bb--12-15----15----15-12---15----------15-
Gb----------------------------------------
Db----------------------------------------
Ab----------------------------------------
Eb----------------------------------------
Verse
Eb--------------------
Bb--------------------
Gb--12--11--9----9-9--
Db--------------------
Ab--10--9---7----7-7--
Eb--------------------


Bridge
Eb-------------------------
Bb-------------------------
Gb--9-9-9-12-12-8-9-9-9-11-
Db-------------------------
Ab-------------------------
Eb-------------------------


Chorus             |End with
Eb-----------------|------------------
Bb-----------------|------------------
Gb-----------------|-9-9-8-12-12-11-8-
Db-2---2---5-5-4-4-|------------------
Ab-2---2---5-5-4-4-|------------------
Eb-0---0---3-3-2-2-|------------------

Riff
Eb--------------------|-----------------------------------
Bb--------------------|-----------------------------------
Gb--------------------|-9-11-12--11-9-9--12-15-12--11-9-9-
Db--------------------|-----------------------------------
Ab-2-2-2-2-2----2-2-2-|-----------------------------------
Eb-0-0-0-0-0----0-0-0-|-----------------------------------


Riff 2
Eb-------------------------------------------------------------------
Bb--------------------(elevens)--------------------------------------
Gb-8-8-8-8-8-8-8-8-1111111111111111--14-14-14-14-14-14-14-14---------
Db-------------------------------------------------------------------
Ab-6-6-6-6-6-6-6-6-9-9-9-9-9-9-9-9---12-12-12-12-12-12-12-12---------
Eb-------------------------------------------------------------------


Intro       x4

Verse       x8

Bridge      x4

Chorus      x4

Verse       x8

Bridge      x4

Chorus      x8

Riff        x16?

Riff 2      x1

Chorus      x8

Almost there ...

Sign in to get your own page with links to favourite songs and more. You are just one click away...

Login with Facebook Login with Google