Log in

One click and you are in

Login with Facebook Login with Google

Why sign up and log in

Guitar Tabs Explorer
Afi tabs for The great disappointment

Guitar tabs with lyrics

AFI- Sing the Sorrow -Track -08- The Great Dissapointment--
Transcribed by : Isaac H. Marez (all transcription done by the
aforementioned). This is my first attempt at doing this so, if anyone has
imporvements they are welcome to do so.

Bass
G--------------------------------------------
D--------------------------------------------
A------44-44-44-444--44-44-44-444--
E--------------------------------------------

Intro

G---------------------------------------------------------
D-----------4-6h-2----------4-6h-2----------4-6h-2
A-4-4--44----------2-2--00--------2-2--44---------
E---------------------------------------------------------

G-------------------------------I---66------66----66-666666
D-------------------------------I--------------------------------
A-2-2--00----------2-2-44-I---44------44----44-444444
E------------------------------I---------------------------------
  Repeat 3-4X                 Outro


E--4--------4------4-----5----5----5----7-754---
B----5-------5------5-----5----5----5----5----5--
G------6------6------6-----6----6---6-----6----6--
D-------------------------------------------------------
A-------------------------------------------------------
E-------------------------------------------------------
   (A chord diagramC#C#)	            (A chord diagramA augmentedA)
   I can remember


E--4------4----4-----5----5---5------555554---4--------
B----5------5----5----5----5----5-----5555555--5-------
G------6-----6----6-----6----6---6-----666666----6-----
D------------------------------------------------------------
A------------------------------------------------------------
E------------------------------------------------------------
   (A chord diagramC#C#)	                      (A chord diagramA augmentedA)
   chrysanthemums

E--4--------4------4-----5----5----5----7-754---
B----5-------5------5-----5----5----5----5----5--
G------6------6------6-----6----6---6-----6----6--
D-------------------------------------------------------
A-------------------------------------------------------
E-------------------------------------------------------
   (A chord diagramC#C#)	            (A chord diagramA augmentedA)
   I can remember

E--4--------4------4-5--5--5----7--7--7--------
B----5-------5------5-5--5--5----7--7--7-------
G------6------6------6-6--6--6-----8--8--8-----
D-------------------------------------------------------
A-------------------------------------------------------
E-------------------------------------------------------
  (A chord diagramC#C#)	            (A chord diagramA augmentedA)
   I'd shut

E--4---4---4-------4---4---4-----------
B--5---5-----5-----5---5-----5---------
G--6---6-------6---6---6-------6-------
D--6---6------------6---6---------------
A--4---4------------4---4---------------
E----------------------------------------
(A chord diagramC#C#)

E--4---4---4----------------5---5----------------------
B--5---5-----5--------------5---5----------------------
G--6---6-------6------------6---6-------------------------
D--6---6---------------------7---7-------------------------
A--4---4---------------------7---7-------------------------
E-----------------------------5---5--------------------------
   A chord diagramC#C#		  A chord diagramA augmentedA
Oh, how I


E--2//---4---4---4----------------5---5------7--754---
B--4//---5---5-----5--------------5---5----------------
G--4//---6---6-------6------------6---6---------------
D--4//---6---6---------------------7---7----------------
A--2//---4---4---------------------7---7-----------------
E------------------------------------5---5-----------------
             A chord diagramC#C#	             A chord diagramA augmentedA
      I knew


E--4---4---4----------------5---5----------------------
B--5---5-----5--------------5---5----------------------
G--6---6-------6------------6---6-------------------------
D--6---6---------------------7---7-------------------------
A--4---4---------------------7---7-------------------------
E-----------------------------5---5--------------------------
   A chord diagramC#C#		  A chord diagramA augmentedA
Oh, how

E--2//---4---4---4----------------5---5------7--754---
B--4//---5---5-----5--------------5---5----------------
G--4//---6---6-------6------------6---6---------------
D--4//---6---6---------------------7---7----------------
A--2//---4---4---------------------7---7-----------------
E------------------------------------5---5-----------------
   A chord diagramC#C#		  A chord diagramA augmentedA
I'd make


E----------------------------------------------------------------------
B----------------------------------------------------------------------
G----6--6//8--8-8-8-9--9-9-9//13--13--------------------------
D-------------------------------------------------------------------
A----4--4//6--6-6-6-7--7-7-7//11--11-------------------------
E---------------------------------------------------------------------


Chorus:
E------------5----0----3-----2---------4------------------------------
B------------5----0----3-----4---------5---9991077779555574
G------------6----1----4-----4---------6------------------------------
D------------7----2----5-----2---------6-------------------------------
A------------7----2----5-----2---------4-------------------------------
E------------5----0----3--------------------------------------------------
                A chord diagramA augmentedA     A chord diagramE MajorE   A chord diagramF#F#    A chord diagramBB          A chord diagramC#C#
   While I
E------------5----0----3-----2---------4------------------------------
B------------5----0----3-----4---------5---9991077779555574
G------------6----1----4-----4---------6-----------------------------
D------------7----2----5-----2---------6-----------------------------
A------------7----2----5-----2---------4-----------------------------
E------------5----0----3----------------------------------------------
                A chord diagramA augmentedA     A chord diagramE MajorE   A chord diagramF#F#    A chord diagramBB          A chord diagramC#C#
   While I


E-------------------------------------------
B-----5---------574-----002-----------
G----------------------------------------------
D------------------------------------------------
A-----------------------------------------------------
E------------------------------------------------


A chord diagramC#C#         A chord diagramE MajorE    A chord diagramA augmentedA    A chord diagramE MajorE
I can remember
A chord diagramC#C#         A chord diagramE MajorE    A chord diagramA augmentedA    A chord diagramE MajorE
Soft
A chord diagramC#C#         A chord diagramE MajorE    A chord diagramA augmentedA    A chord diagramE MajorE
I can
A chord diagramC#C#         A chord diagramE MajorE    A chord diagramA augmentedA    A chord diagramBB
Dreams

E-------------------------------------------
B-5555557777799999141414141414
G----------------------------------------------
D------------------------------------------------
A-----------------------------------------------
E------------------------------------------------


Chorus:
E-----------------------------------------------------------------------
B---------------------------------------------9991077779555574
G------------6----1----4-----4---------6-----------------------------
D------------7----2----5-----2---------6-----------------------------
A------------7----2----5-----2---------4-----------------------------
E------------5----0----3-----------------------------------------------
                A chord diagramA augmentedA     A chord diagramE MajorE   A chord diagramF#F#    A chord diagramBB          A chord diagramC#C#
   While I

E-----------------------------------------------------------------------
B---------------------------------------------9991077779555574
G------------6----1----4-----4---------6-----------------------------
D------------7----2----5-----2---------6-----------------------------
A------------7----2----5-----2---------4-----------------------------
E------------5----0----3----------------------------------------------
     A/E/F#/B/A
 While I
      E/F#/C# /A
 Hope
      E/B/F#/A
 Faith
      E/F#/B/C#
 I was


E-------4-4-5-5-2-2-4-4-0-0-2-2-----------------------
B-------5-5-5-5-2-2-2-2-2-2-2-2-4-4---
G---------------------------------------5-5-------------
D------------------------------------------------------------
A------------------------------------------------------------
E------------------------------------------------------------

Never Never


G------------------1-----------------5------6----
D------------------2-----------------4------4------
A------------------2-----------------4------4-----------
E-4h54-2h4-2-0------------------2------------
                       A chord diagramE MajorE                    A chord diagramF#F#     A chord diagramC#C#
                      Inside

G------------------1-----------------5------6----
D------------------2-----------------4------4----
A------------------2-----------------4------4----
E-4h54-2h4-2-0------------------2-----------
                       A chord diagramE MajorE                    A chord diagramF#F#     A chord diagramC#C#
                    So dies
Bass pt .


E---------4-----4--4---4------5-----7-----------------------------
B----------5-----5--5---5-------5----5------55577799914141414
G-6----6--6-----6--6---6--------6---6----------------------------
D------------------------------------------------------------------------
A-----------------------------------------------------------------------
E---------------------------------------------------------------------




E-------------------------------------------------------------------------
B-----------------------------------------------9991077779555574
G------------6----1----4-----4---------6------------------------------
D------------7----2----5-----2---------6-------------------------------
A------------7----2----5-----2---------4-------------------------------
E------------5----0----3-------------------------------------------------
                A chord diagramA augmentedA     A chord diagramE MajorE   A chord diagramF#F#    A chord diagramBB          A chord diagramC#C#
   While I
E-----------------------------------------------------------------------
B--------------------------------------------9991077779555574
G------------6----1----4-----4---------6-----------------------------
D------------7----2----5-----2---------6-----------------------------
A------------7----2----5-----2---------4-----------------------------
E------------5----0----3----------------------------------------------
                A chord diagramA augmentedA     A chord diagramE MajorE   A chord diagramF#F#    A chord diagramBB          A chord diagramC#C#
   While I


      A/E/F#/B/A
 While I
      E/F#/C# /A
 Hope
      E/B/F#/A
 Faith
      E/F#/B/C#
 I was

Almost there ...

Sign in to get your own page with links to favourite songs and more. You are just one click away...

Login with Facebook Login with Google