Log in

One click and you are in

Login with Facebook Login with Google

Why sign up and log in

Guitar Tabs Explorer
Afi tabs for Miss murder

Guitar tabs

:NOTE

This is not the full version. I will be updating this

|-----0---0-1-----0----0--------|
|-------------------------------|
|---2---2-------2----2-----2--0-|
|-------------------------------|
|-0-----------------------------|
|-------------------------------|


|-------------------------------|
|-------------------------------|
|-------------------------------|
|-77-77-55-22-----77-77-55-55-2-|
|-77-77-55-22-----77-77-55-55-2-|
|-55-55-33-00-----55-55-33-33-0-|

Tabs submitted by Michael Peters/American Idiot

Other versions of Miss Murder

Miss murderChords
Miss murder (Ver. 2)Tabs
Miss murdererTabs

Almost there ...

Sign in to get your own page with links to favourite songs and more. You are just one click away...

Login with Facebook Login with Google