Log in

One click and you are in

Login with Facebook Login with Google

Why sign up and log in

Guitar Tabs Explorer
Afi tabs for God called in sick today

Guitar tabs

E-mail Address:  iwasborn2killu@aol.com

uhh....basically just listen to the track, n play the notes.  its pretty EZ.=
..but then again, i only tabbed the intro ;)
u wanna play this clean...it'll work on an acustic also
if anyone can tab the rest, that would be great...just add on to this.
ther may be some mistakes in mine....so u can also fix em
have fun...

e----------------------------------------------------------------------
b----------------------------------------------------------------------
g----0-0-3--0-0-3--0-0---------2------2--------------2------2----------
d--------------------------3-3----3-3----3-3-----0-0----0-0----0-0-----
a----------------------------------------------------------------------
E----------------------------------------------------------------------

e----------------------------------1-----------------------------------
b------------------------------------3---------------------------------
g--------3------3----------0-0-3-0-----3-0------2-----2----------2-3-2-
d----1-1----1-1----1-1----------------------3-3---3-3---3-3--0-0-------
a----------------------------------------------------------------------
E----------------------------------------------------------------------

e-------------------------------|
b-------------------------------|
g---------------3-----3---------|
d----3-0-0--1-1---1-1---1-1-----|
a-------------------------------|
E-------------------------------|

just repeat it through the whole song....

oh yeah....if you have any questions, feel free to e-mail me...just remember=
 to type "tab" in subject line..otherwise ill just deleate it...lol

Almost there ...

Sign in to get your own page with links to favourite songs and more. You are just one click away...

Login with Facebook Login with Google