Log in

One click and you are in

Login with Facebook Login with Google

Why sign up and log in

Guitar Tabs Explorer
Afi bass tabs for Girls not grey

Bass tabs

Intro

Gb|-----------------|-----------------|-----------------|-----------------|
Db|-----------------|-----------------|-----------------|-----------------|
Ab|-----5---7---8---|-----8---7---5---|-----5-----------|-----------------|
Eb|-5---------------|-----------------|-3-------3---5---|-----5---7---8---|

Gb|-----------------|-----------------|-----------------|-----------------|
Db|-----------------|-----------------|-----------------|---------9---10--|
Ab|-----5---7---8---|-----8---7---8---|-10--7---10--12--|-----12----------|
Eb|-5---------------|-----------------|-----------------|-----------------|

Gb|-----------------|-----------------|-----------------|-----------------|
Db|-----------------|-----------------|-----------------|-----------------|
Ab|-----5---7---8---|-----8---7---5---|-----5-----------|-----------------|
Eb|-5---------------|-----------------|-3-------3---5---|-----5---7---8---|

Gb|-----------------|-----------------|-----------------|-----------------|
Db|-----------------|-----------------|-----------------|-----------------|
Ab|-----5---7---8---|-----8---7---5---|-----------------|-----------------|
Eb|-5---------------|-----------------|-8-----7-----3---|-5---------------|

Pre-Verse 1

Gb|-----------------|-----------------|-----------------|-----------------|
Db|---------------7-|-----7-------7---|---------------7-|-----5-------7---|
Ab|-0---0---0-0-0---|---0-------------|-0---0---0-0-0---|---0-----0-0-----| x2
Eb|-----------------|-----------------|-----------------|-----------------|


Verse 1

Gb|-----------------|-----------------|-----------------|-----------------|
Db|---------------7-|-----7-------7---|---------------7-|-----5-------7---|
Ab|-0---0---0-0-0---|---0-------------|-0---0---0-0-0---|---0-----0-0-----| x3
Eb|-----------------|-----------------|-----------------|-----------------|

Gb|-----------------|-----------------|-----------------|-----------------|
Db|---------------5-|-----5---5-5-----|-----------------|-----------------|
Ab|-0---0---0-0-0---|---0---------7-7-|-8-8-7-7-5-5-----|-----------------|
Eb|-----------------|-----------------|-------------8-3-|---3-3-3-3-3-3-3-|

Pre-Chorus 1

Gb|-----------------|-----------------|
Db|-----------------|-7-7-7-7-7-7-7-7-|
Ab|-0---0-0-0-0-0/--|-----------------|
Eb|-----------------|-----------------|


Chorus 1

Gb|-----------------|-----------------|-----------------|-----------------|
Db|-----------------|-----------------|-----------------|-----------------|
Ab|-8---7---5-------|-----------------|-----5-----------|---------5---7---|
Eb|-------------8---|-----8---7---5---|-3-------3---5---|-----5-----------|

Gb|-----------------|-----------------|-----------------|-----------------|
Db|-----------------|-----------------|-----------------|-----------------|
Ab|-8---7---5-------|---------7---8---|-10--7---10--12--|-----X---12------|
Eb|-------------8---|-----8-----------|-----------------|-----------------|

Gb|-----------------|-----------------|-----------------|-----------------|
Db|-----------------|-----------------|-----------------|-----------------|
Ab|-8---7---5-------|-----------------|-----5-----------|---------5---7---|
Eb|-------------8---|-----8---7---5---|-3-------3---5---|-----5-----------|

Gb|-----------------|-----------------|-----------------|-----------------|
Db|-----------------|-----------------|-----------------|-----------------|
Ab|-8---7---5-------|-----------------|-----------------|-----------------|
Eb|-------------8---|-----7---5---3---|-0-------0---0-0-|---0-0---0/------|

Gb|-----------------|-----------------|
Db|-----------------|-----------------|
Ab|-7-7-7-7-5-5-5-5-|-3-3-3-3-2-2-2-2-|
Eb|-----------------|-----------------|

Pre-Verse 2

Gb|-----------------|-----------------|-----------------|-----------------|
Db|---------------7-|-----7-------7---|---------------7-|-----5-------7---|
Ab|-0---0---0-0-0---|---0-------------|-0---0---0-0-0---|---0-----0-0-----|
Eb|-----------------|-----------------|-----------------|-----------------|

Gb|-----------------|-----------------|---------------------|-------------------|
Db|---------------7-|-----7---7-7-9-9-|-10-10-9-9-7-7-------|-7-7---------------|
Ab|-0---0---0-0-0---|---0-------------|---------------10-10-|-----10-10-8-8-7-7-|
Eb|-----------------|-----------------|---------------------|-------------------|


Verse 2

  Repeat Verse 1


Pre-Chorus 2

  Repeat Pre-Chorus 1


Chorus 2

Gb|-----------------|-----------------|-----------------|-----------------|
Db|-----------------|-----------------|-----------------|-----------------|
Ab|-8---7---5-------|-----------------|-----5-----------|---------5---7---|
Eb|-------------8---|-----8---7---5---|-3-------3---5---|-----5-----------|

Gb|-----------------|-----------------|-----------------|-----------------|
Db|-----------------|-----------------|-----------------|-----------------|
Ab|-8---7---5-------|---------7---8---|-10--7---10--12--|-----12--12------|
Eb|-------------8---|-----8-----------|-----------------|-----------------|

Gb|-----------------|-----------------|-----------------|-----------------|
Db|-----------------|-----------------|-----------------|-----------------|
Ab|-8---7---5-------|-----------------|-----5-----------|---------5---7---|
Eb|-------------8---|-----8---7---5---|-3-------3---5---|-----5-----------|

Gb|-----------------|-----------------|-----------------|-----------------|
Db|-----------------|-----------------|-----------------|-----------------|
Ab|-8---7---5-------|-----------------|-----------------|-----------------|
Eb|-------------8---|-----7---5---3---|-0-------0---0-0-|---0-0---0/------|

Gb|-----------------|-----------------|
Db|-----------------|-----------------|
Ab|-7-7-7-7-5-5-5-5-|-7---2---3---4---|
Eb|-----------------|-----------------|


Bridge

Gb|-----------------|-----------------|-----------------|-----------------|
Db|-----------------|-----------------|-----------------|-----------------|
Ab|-5---5---5-5-5-3-|---3-------------|-----------------|-----2---3---4---|
Eb|-----------------|-----0---1---2---|-3---3---3-3-3-5-|---5-------------|

Gb|-----------------|-----------------|-----------------|-----------------|
Db|-----------------|-----------------|-----------------|-----------------|
Ab|-5---5---5-5-5-3-|---X-3---3-3-3-3-|-----------------|-----------------|
Eb|-----------------|-----------------|-3---2---3---4---|-5---5---X-7-----|

Gb|------------------|--------------------|-----------------|-----------------|
Db|------------------|----------------9-9-|-7-7-7-7-5-5-5-5-|-----------------|
Ab|---------7-7-8-10-|---10-7-7-10-10-----|-----------------|-8-8-8-8-7-7-7-7-|
Eb|-8---8------------|--------------------|-----------------|-----------------|

Gb|-----------------|-----------------|-----------------|-----------------|
Db|-----------------|-----------------|-----------------|-----------------|
Ab|-5---5---5-5-5-3-|---3-------------|-----------------|-----------------|
Eb|-----------------|-----0---1---2---|-3---------------|-----------------|

Bass at 2:13

Gb|-----------------|-----------------|-----------------|-----------------|
Db|-----------------|-----------------|-----------------|---------2/------|
Ab|-----------------|-----------------|-----------------|-----------------|
Eb|-----------------|-----------------|-----------------|-----------------|

Gb|-----------------|-----------------|-----------------|-----------------|
Db|-7---7-7-7-7-X-7-|---X-7---7-7-7-7-|-5---5-5-5-5-X-5-|---X-5---5-5-5-5-|
Ab|-----------------|-----------------|-----------------|-----------------|
Eb|-----------------|-----------------|-----------------|-----------------|

Gb|-----------------|-----------------|-----------------|-----------------|
Db|-3---3-3-3-3-X-3-|---X-3---3-3-3-3-|-5---5-5-5-5-X-5-|---X-5---5-5-5-5-|
Ab|-----------------|-----------------|-----------------|-----------------|
Eb|-----------------|-----------------|-----------------|-----------------|

Gb|-----------------|-----------------|-----------------|-----------------|
Db|-7---7-7-7-7-X-7-|---X-7---7-9-9-9-|-5---5-5-5-5-X-5-|---X-5---5-7-7-7-|
Ab|-----------------|-----------------|-----------------|-----------------|
Eb|-----------------|-----------------|-----------------|-----------------|

Gb|-----------------|-----------------|-----------------|-----------------|
Db|-4---4-4-4-4-X-4-|---4-4-4-4-5-5-5-|-3---3-3-3-3-3-3-|-3-3-3-3-3-3-----|
Ab|-----------------|-----------------|-----------------|-------------5-5-|
Eb|-----------------|-----------------|-----------------|-----------------|

Gb|-----------------|-----------------|-------------------------|---------------------------|
Db|-----------------|-----------------|-14-14-14-14-14-14-14-14-|-14-14-14-14-14-14-14-14-|
Ab|-7-7-7-7-7-7-7-7-|-7-7-7-7-7-7-7---|-------------------------|---------------------------|
Eb|-----------------|-----------------|-------------------------|---------------------------|


Chorus 3

Gb|-----------------|-----------------|-----------------|-----------------|
Db|-----------------|-----------------|-----------------|-----------------|
Ab|-8---7---5-------|-----------------|-----5-----------|---------5---7---|
Eb|-------------X-8-|---X-8---7---5---|-3-------3---X-5-|---X-5-----------|

Gb|-----------------|-----------------|------------------|--------------------|
Db|-----------------|-----------------|------------------|--------------------|
Ab|-8---7---5-------|---------7---8---|-10--7---10--X-12-|----X-12--12-12-7---|
Eb|-------------X-8-|---X-8-----------|------------------|--------------------|

Gb|-----------------|-----------------|-----------------|-----------------|
Db|-----------------|-----------------|-----------------|-----------------|
Ab|-8---7---5-------|-----------------|-----5-----------|---------5---7---|
Eb|-------------X-8-|---X-8---7---5---|-3-------3---X-5-|---X-5-----------|

Gb|-----------------|-----------------|-----------------|-----------------|
Db|-----------------|-----------------|-----------------|-----------------|
Ab|-8---7---5-------|-----------------|-----------------|-------------2/--|
Eb|-------------X-8-|-----7---5---3---|-0-------0---X-0-|---X-0---0/------|

Gb|-----------------|-----------------|
Db|-----------------|-----------------|
Ab|-7-7-7-7-7---7-7-|-7-7-7---7-7-7-7-|
Eb|-----------------|-----------------|


Outro

Gb|-----------------|-----------------|-----------------|-----------------|
Db|-----------------|-----------------|-----------------|-----------------|
Ab|-----5---7---8---|-----8---7---5---|-----5-----------|-----------------|
Eb|-5---------------|-----------------|-3-------3---5---|-----5---7---8---|

Gb|-----------------|-----------------|-----------------|-----------------|
Db|-----------------|-----------------|-----------------|---------9---10--|
Ab|-----5---7---8---|-----8---7---8---|-10--7---10--12--|-----12----------|
Eb|-5---------------|-----------------|-----------------|-----------------|

Gb|-----------------|-----------------|-----------------|-----------------|
Db|-----------------|-----------------|-----------------|-----------------|
Ab|-----5---7---8---|-----8---7---5---|-----5-----------|-----------------|
Eb|-5---------------|-----------------|-3-------3---5---|-----5---7---8---|

Gb|-----------------|-----------------|-----------------|-----------------|
Db|-----------------|-----------------|-----------------|-----------------|
Ab|-----5---7---8---|-----8---7---5---|-----------------|-----------------|
Eb|-5---------------|-----------------|-8-----7-----3---|-5---------------|

Almost there ...

Sign in to get your own page with links to favourite songs and more. You are just one click away...

Login with Facebook Login with Google