Log in

One click and you are in

Login with Facebook Login with Google

Why sign up and log in

Guitar Tabs Explorer
Afi bass tabs for Beautiful thieves

Bass tabs

Tabbed By: Skerlnik

Tuning: EADG

[0:06] intro           [0:11] verse
G|-------------------------|   |-------------------------------------------|
D|-------------------------|   |-alternate the two verse endings each time-|
A|-------------------------| 2x |-------------------odd count---even-count--| x12
E|-0-2h22--2-02h22--2-02h2-|   |--0-2h22--2-02h22--[-2-5-0-]---[-2-5-7-]---|

[0:46] pre-chorus
G|-------------------|
D|-4444444-44444444--|
A|--------4----------|
E|-------------------|

[0:47] chorus 2x                 chorus end #1
G|------------------------------------------------|------------------|
D|---------------7--------------------------------|------------------|
A|-5-555-555-555----------------5-7-777-777-777-7-|------------------|
E|-----------------5-555-555-555------------------|-2-222-22--55--00-|

[1:07] chorus end #2
G|-----------------|
D|-----------------|
A|-----------------|
E|-7-777-777-777---|

[1:10] play intro
-- break --

[1:27] verse 8x (mostly without the odd/even endings)

[1:49] pre-chorus

[1:52] chorus 2x
-- break --

[2:26] bridge "...Who would run from us."
G|------------------------------------------|
D|------------------------------------7-6---|
A|---------------------2------------7-------|
E|-5-/9--5-/9--5-/9-9-0-00---0-2-4-5--------|

[2:42] post-bridge
G|--------------------------------------------------|
D|--------------------------------------------------|
A|---------------5-7-777-777-777-7------------------|
E|-5-555-555-555-------------------2-222-22--55--00-|

[2:50] chorus 3x (play ending #2 first time through)

[3:24] outro
G|----------------------------------|
D|----------------------------------|
A|-9(ring)--4-/9(ring)--4-/9(ring)--|

Almost there ...

Sign in to get your own page with links to favourite songs and more. You are just one click away...

Login with Facebook Login with Google