Log in

One click and you are in

Login with Facebook Login with Google

Why sign up and log in

Guitar Tabs Explorer
Aerzte chords for Lovesong

Guitar chords

Die Ärzte
1/2 Lovesong
aus Unplugged Rock'n'Roll Realschule

12-string guitar when possible
Verse I,II & III:(Ich weiss du wirst mich vermissen...)
   Em   Em7  Em6  A chord diagramC/BC/B A chord diagramCadd9Cadd9A chord diagramDsus4Dsus4 A chord diagramD MajorD
|--0----0----0----0----3----2----3----2--------------------------------|
|--0----3----2----1----3----3----3----3--------------------------------|
|--0----0----0----0----0----2----2----2--------------------------------|
|--2----2----2----2----2----0----0----0--------------------------------|
|--2----2----2----2----3-----------------------------------------------|
|--0-------------------------------------------------------------------|


Pre-Chorus:(Ich hoff' meine Worte machen...)
   G    D   Cadd9  A chord diagramD MajorD
|--3----2----3-----2---------------------------------------------------|
|--3----3----3-----3---------------------------------------------------|
|--0----2----0-----2---------------------------------------------------|
|--0----0----2-----0---------------------------------------------------|
|--2---------3---------------------------------------------------------|
|--3-------------------------------------------------------------------|


Chorus:(Soll es das gewesen sein...)
   Em  A chord diagramCadd9Cadd9 A chord diagramD MajorD
|--0----3----2---------------------------------------------------------|
|--0----3----3---------------------------------------------------------|
|--0----0----2---------------------------------------------------------|
|--2----2----0---------------------------------------------------------|
|--2----3--------------------------------------------------------------|
|--0-------------------------------------------------------------------|


Interlude:(Love, love, love,...)
   E5  A chord diagramF#5F#5 G5  A5  E   F#  G    A    C    A chord diagramD MajorD
|-----------------------------------------------------------------------|
|------------------9---11--12---14---17---19----------------------------|
|------------------9---11--12---14---17---19----------------------------|
|--2---4---5---7---9---11--12---14---17---19----------------------------|
|--2---4---5---7---7---9---10---12---15---17----------------------------|
|--0---2---3---5---0----------------------------------------------------|


Key:

Verse I

Pre-Chorus

Chorus

Verse II

Pre-Chorus

Chorus
Interlude

Verse III

Pre-Chorus
2 x Chorus

Almost there ...

Sign in to get your own page with links to favourite songs and more. You are just one click away...

Login with Facebook Login with Google