Log in

One click and you are in

Login with Facebook Login with Google

Why sign up and log in

Guitar Tabs Explorer
Aerosmith tabs for When i needed you

Guitar tabs

When I needed You
Aerosmith
Album: Pandora's Box - Disc 1
Original Song by Chain Reaction (Tyler's band)
Tone: A chord diagramD MajorD
Transcribed by Estevan Vedovelli
Standard Tuning: e-B-G-D-A-E

----------------------------------------------------------
-----------------------
Intro and vocals:
  A chord diagramD5D5
I-------------------I
I-------------------I
I-----7------7---7--I
I-------------------I
I-5-----5------5----I
I-------------------I

A chord diagramD5D5
When I needed...

                                 A chord diagramA5A5
                      ... me the world

A chord diagramG5G5
When I wanted...

A chord diagramD5D5
And what you...

A chord diagramG5G5       A chord diagramA5A5  A chord diagramB5B5   A chord diagramD5D5
I needed all your love
                 I--------------------I
                 I--------------------I
                 I-----------5--------I
                 I-----5-6-7---7-5----I
                 I-5-8-------------8--I
                 I--------------------I

A chord diagramD5D5
When I...

                                       A chord diagramA5A5
                   ...you just left me alone

A chord diagramG5G5
When I wanted...

A chord diagramD5D5
And what you...

A chord diagramG5G5       A chord diagramA5A5  A chord diagramB5B5   A chord diagramD5D5
I needed all your love
                 I--------------------I
                 I--------------------I
                 I-----------5--------I
                 I-----5-6-7---7-5----I
                 I-5-8-------------8--I
                 I--------------------I


Solo: A chord diagramD5D5 A chord diagramA5A5

A chord diagramG5G5
When I wanted...

A chord diagramD5D5
And what you gave...

A chord diagramG5G5       A chord diagramA5A5  A chord diagramB5B5   A chord diagramD5D5
I needed all your love
                 I--------------------I
                 I--------------------I
                 I-----------5--------I
                 I-----5-6-7---7-5----I
                 I-5-8-------------8--I
                 I--------------------I


Solo: A chord diagramD5D5 A chord diagramA5A5

A chord diagramG5G5
When I wanted...

A chord diagramD5D5
But what you...

A chord diagramG5G5       A chord diagramA5A5  A chord diagramB5B5   A chord diagramD5D5
I needed all your love

A chord diagramG5G5       A chord diagramA5A5  A chord diagramB5B5   A chord diagramD5D5
I needed all your love

A chord diagramG5G5       A chord diagramA5A5  A chord diagramB5B5   A chord diagramD5D5     A chord diagramG5G5 A chord diagramA5A5 A chord diagramD5D5
I needed all your love

----------------------------------------------------------
----------------------

Any Doubt, corrections, or something else, send e-mails
to estevan.v@bol.com.br

I hope i've been helping you
ⓘ Guitar tab for 'When I Needed You' by Aerosmith, a hard rock band formed in 1970 from Massachusetts, USA. Aerosmith is known for their philosophical rock/pop music.

Almost there ...

Sign in to get your own page with links to favourite songs and more. You are just one click away...

Login with Facebook Login with Google