Log in

One click and you are in

Login with Facebook Login with Google

Why sign up and log in

Guitar Tabs Explorer
Aerosmith bass tabs for Walking the dog

Bass tabs

positive how Tom Hamilton plays it on the
record, but this is the basic idea.


intro
g----------|----------|----------|--------------|
d----------|----------|----------|--------------|
a-7-7--7-7-|---5--7-7-|-7-5--7-7-|--7-7-(hold)--|
E----------|----------|----------|--------------|

pre-verse x2
g-----------------|-----------------|-----------------|---------------------|
d--------5^-------|--------5^-------|--------5^-------|-5-5-4-4-3-3-0-2-0-2-|
a-----------7-5---|-----------7-5---|-----------7-5---|---------------------|
E-0-0-7---------7-|-0-0-7---------7-|-0-0-7---------7-|---------------------|
verse x6
g-----------------|
d--------5^-------|
a-----------7-5---|
E-0-0-7---------7-|


chorus
g---------------------|-----------------|-----------------|-----------------|
d-2h4-----------------|-----------------|-----------------|-----------------|
a-----0-0-0-0-0-0-0-0-|-0-0-0-0-0-0-0-0-|-----------------|-----------------|
E---------------------|-----------------|-0-0-0-0-0-0-0-0-|-0-0-0-0-0-0-0-0-|

g-------------------|---------------------|
d-------------------|---------------------|
a-------------------|---------------------|
E-7-7-7-7-7-7-7-7---|-5-5-5-5-5-5-5-5--\0-|

verse

chorus

interlude
g-------------------|-------------------|
d-------5p4---------|-------5p4---------|play these two
a------------7p5----|------------7p5----|measures 4x
E-0-0-7-----------7-|-0-0-7-----------7-| then...

g-------5p4---------|-------5p4---------|-----------------|-----|
d-----------7p5-----|-----------7p5-----|-----------------|-----|
a-0-0-7----------7--|-0-0-7----------7--|-----------------|-----|
E-------------------|-------------------|-7-7-7-7-7-7-7-7-|-7\\-|


verse


chorus variation
g-------------|-------------|-------------|-------------------------------|
d-------------|-------------|-------------|-------------------------------|
a-------------|-------------|-2-4-5-4-2-4-|-2-2-2-4-4-4-5-5-5-6-6-6--7--8-|
E-0-2-3-2-0-2-|-0-2-3-2-0-2-|-------------|-------------------------------|

g-----------------|-----------------|----------------|---------|<-- play
d-----------------|-----------------|-------5b-------|-5-4-3-2-| these four
a-----------------|-----------------|----------7-5---|---------| measures
E-7-7-7-7-7-7-7-7-|-5-5-5-5-5-5-5-5-|-0-0-7--------7-|---------| twice, then

g-----------------|-----------------|----------------|
d-----------------|-----------------|----------------|
a-----------------|-----------------|----------------|
E-7-7-7-7-7-7-7-7-|-5-5-5-5-5-5-5-5-|-5\0-(let ring)-| End.

Hope it helps :)
ⓘ Bass guitar tab for 'Walking The Dog' by Aerosmith, a hard rock band formed in 1970 from Massachusetts, USA. Aerosmith is known for their philosophical rock/pop music.

Almost there ...

Sign in to get your own page with links to favourite songs and more. You are just one click away...

Login with Facebook Login with Google