Log in

One click and you are in

Login with Facebook Login with Google

Why sign up and log in

Guitar Tabs Explorer
Aerosmith tabs for Walk this way

Intro

Eb---------------------------------------------------
Bb---------------------------------------------------
Gb---------------------------------------------------
Db-------2-------2-----------2-----------2----------
Ab--0-1-2--0-1-2-------0-1-2------0-1-2--------------
Eb------------------0-----------------------3--------


Eb-----------------------------------------------------
Bb-----------------------------------------------------
Gb-----------------------------------------------------
Db---------2------------2------------2---------2---2-------
Ab--0-1-2--------0-1-2--------0-1-2-----0-1-2------0----------
Eb-------------------------0-----------------------0---

Other versions of Walk This Way

Walk this wayChords
Walk this way (Ver. 2)Chords
Walk this wayTabs
Walk this way (Ver. 2)Tabs
Walk this way 1st soloTabs

Almost there ...

Sign in to get your own page with links to favourite songs and more. You are just one click away...

Login with Facebook Login with Google