Log in

One click and you are in

Login with Facebook Login with Google

Why sign up and log in

Guitar Tabs Explorer
Aerosmith guitar chords for Sweet emotion (Ver. 2)

Guitar chords

Intro

Sweet      Emo....tion
E|----------------------------------|
B|----------------------------------|
G|----------------------------------|
|7----------------------------------|
A|-----------5----------------------|
E|------------------5---------------|


Riff 1

 A chord diagramD5D5   A chord diagramA5A5    A chord diagramA5A5       A chord diagramG5G5     A chord diagramA5A5
E|-----------------|-----------------|
B|-3---------------|-----------------|
G|-2---2-----2-----|---------2-------|
D|-0---2-----2-----|---------2-------|
A|-----0-----0-----|-3p0-----0-------|
E|-----------------|-----3-----------|


Riff 2

   A chord diagramD5D5
E|-----------------|-----------------|
B|-----------------|-----------------|
G|-----------------|-----------------|
D|-----------------|-----------------|
A|-5p3p0-----------|-----------------|

Other versions of Sweet Emotion

Sweet emotionChords
Sweet emotionTabs

↓ Add and view comments below ↓

What do you think about this song and these chords?

Add your comments, questions, rant or a thumbs up below.

Almost there ...

Sign in to get your own page with links to favourite songs and more. You are just one click away...

Login with Facebook Login with Google