Log in

One click and you are in

Login with Facebook Login with Google

Why sign up and log in

Guitar Tabs Explorer
Aerosmith bass tabs for Permanent vacation

Bass tabs with lyrics

🎸 Intro:

Bass enters at 0:25
G|-----------------|-----------------|-----------------|-----------------|
D|-----------------|-----------------|-----------------|-----------------|
A|---5-5-5-5-------|-----------------|---5-5-5-5-------|-----------------|
E|-----------0-2-3-|-4-5---3-5-5-3-5-|-----------0-2-3-|-4-5---3-5-------|


G|-----------------|-----------------|-----------------|-----------------|
D|-----------------|-----------------|-----------------|-----------------|
A|---5-5-5-5-------|-----------------|---5-5-5-5-------|-----------------|
E|-----------0-2-3-|-4-5---3-5-5-3-5-|-----------0-2-3-|-4-5---3-5-------|



🎸 Verse 1:

"I got a letter from a friend "
G|-----------------|-----------------|-----------------|-----------------|
D|-----------------|-----------------|-----------------|-----------------|
A|---5-5-5-5-------|-----------------|---5-5-5-5-------|-----------------|
E|-----------0-2-3-|-4-5---3-5-5-3-5-|-----------0-2-3-|-4-5---3-5-------|

G|-----------------|-----------------|-----------------|-----------------|
D|-----------------|-----------------|-----------------|-----------------|
A|---5-5-5-5-------|-----------------|---3---5---------|-----------------|
E|-----------0-2-3-|-4-5---3-5-5-3-5-|-----------0-2-3-|-4-5---3-5-------|


🎸 Verse 2:

"I got to take myself a permanent vacation"
G|-----------------|-----------------|-----------------|-----------------|
D|-----------------|-----------------|-----------------|-----------------|
A|---5-5-5-5-------|-----------------|---5-5-5-5-------|-----------------|
E|-----------0-2-3-|-4-5---3-5-5-3-5-|-----------0-2-3-|-4-5---3-5-------|

G|-----------------|-----------------|-----------------|-----------------|
D|-----------------|-----------------|-----------------|-----------------|
A|---5-5-5-5-------|-----------------|---3---5---------|-----------------|
E|-----------0-2-3-|-4-5---3-5-5-3-5-|-----------0-2-3-|-4-5---3-5-------|

🎸 Chorus:

"I really need "
G|-----------------|-----------------|-----------------|-----------------|
D|-----------------|-----------------|-----------------|-----------------|
A|---3-3-3-3-3-----|-----------------|---3-3-3-3-3-3---|-------2---------|
E|-------------5---|-5-3---3-3-------|---------------5-|-5-3-5-----3-5-3-|

G|-----------------|-----------------|-----------------|-----------------|
D|-----------------|-----------------|-----------------|-----------------|
A|---3-3-3-3-3-----|-----------------|---3-3-3-3-3-3---|-------2-----2---|
E|-------------5---|-5-3---3-3-------|---------------5-|---3-3-----3---3-|


Post 🎸 Chorus:

G|-----------------|-----------------|-----------------|-----------------|
D|-----------------|-----------------|-----------------|-----------------|
A|-2-2-2-2-2-2-2-2-|-2-2-2-2-2-2-2-2-|-2-2-2-2-2-2-2-2-|-2-2-2-2-2-2-2-2-|
E|-----------------|-----------------|-----------------|-----------------|


🎸 Verse 3:

"I got a sister man she really got a pinhead "
G|-----------------|-----------------|-----------------|-----------------|
D|-----------------|-----------------|-----------------|-----------------|
A|---5-5-5-5-------|-----------------|---5-5-5-5-------|-----------------|
E|-----------0-2-3-|-4-5---3-5-5-3-5-|-----------0-2-3-|-4-5---3-5-------|

G|-----------------|-----------------|-----------------|-----------------|
D|-----------------|-----------------|-----------------|-----------------|
A|---5-5-5-5-------|-----------------|---3---5---------|-----------------|
E|-----------0-2-3-|-4-5---3-5-5-3-5-|-----------0-2-3-|-4-5---3-5-------|


🎸 Chorus:

G|-----------------|-----------------|-----------------|-----------------|
D|-----------------|-----------------|-----------------|-----------------|
A|---3-3-3-3-3-----|-----------------|---3-3-3-3-3-3---|-------2---------|
E|-------------5---|-5-3---3-3-------|---------------5-|-5-3-5-----3-5-3-|

G|-----------------|-----------------|-----------------|-----------------|
D|-----------------|-----------------|-----------------|-----------------|
A|---3-3-3-3-3-----|-----------------|---3-3-3-3-3-3---|-------2-----2---|
E|-------------5---|-5-3---3-3-------|---------------5-|---3-3-----3---3-|


Post 🎸 Chorus:

G|-----------------|-----------------|-----------------|-----------------|
D|-----------------|-----------------|-----------------|-----------------|
A|-2-2-2-2-2-2-2-2-|-2-2-2-2-2-2-2-2-|-2-2-2-2-2-2-2-2-|-2-2-2-2-2-2-2-2-|
E|-----------------|-----------------|-----------------|-----------------|

G|-----------------|-----------------|---------------4-|-----4-4-4-4-4---|
D|-----------------|-----------------|-----------------|---------------4-|
A|-2-2-2-2-2-2-2-2-|-2-2-2-2-2-2-2-2-|-2-2-2-2-2-2-2---|-----------------|
E|-----------------|-----------------|-----------------|-----------------|


🎸 Solo:

2:12
G|-----------------|-----------------|-----------------|-----------------|
D|-----------------|-----------------|-----------------|-----------------|
A|-2---0---2-----5-|---5-4-2-5-------|-2---0---2-----5-|---5-4-2-5-------|
E|-----------------|-------------2---|-----------------|-------------2---|

G|-----------------|-----------------|-----------------|-----------------|
D|-----------------|-----------------|-----------------|-----------------|
A|-2---0---2-----5-|---5-4-2-5-------|-2---0---2-----5-|---5-4-2-5-------|
E|-----------------|-------------2---|-----------------|-------------2---|

G|-----------------|-----------------|-------------------------|-----------------------|
D|-----------------|-----------------|-12-12-12-12-12-12-12-12-|-12-12-12-12-12---12---|
A|-5-5-5-5-5-5-5-5-|-5-5-5-5-5-5-5-5-|-------------------------|---------------------2-|
E|-----------------|-----------------|-------------------------|-----------------------|

G|-----------------|-----------------|-----------------|-----------------|
D|-----------------|-----------------|-----------------|-----------------|
A|-----0---2-----5-|---5-4-2-5-------|-2---0---2-----5-|---5-4-2-5-------|
E|-----------------|-------------2---|-----------------|-------------2---|

G|-----------------|-----------------|-----------------|-----------------|
D|-----------------|-----------------|-----------------|-----------------|
A|-2---0---2-----5-|---5-4-2-5-------|-2-2-2-2-2-2-2-2-|-2-2-2-2-2-2-2-2-|
E|-----------------|-------------2---|-----------------|-----------------|


🎸 Verse 4:

G|-----------------|-----------------|-----------------|-----------------|
D|-----------------|-----------------|-----------------|-----------------|
A|---5-5-5-5-------|-----------------|---5-5-5-5-------|-----------------|
E|-----------0-2-3-|-4-5---3-5-5-3-5-|-----------0-2-3-|-4-5---3-5-------|

G|-----------------|-----------------|-----------------|-----------------|
D|-----------------|-----------------|-----------------|-----------------|
A|---5-5-5-5-------|-----------------|---3---5---------|-----------------|
E|-----------0-2-3-|-4-5---3-5-5-3-5-|-----------0-2-3-|-4-5---3-5-------|


🎸 Chorus:

G|-----------------|-----------------|-----------------|-----------------|
D|-----------------|-----------------|-----------------|-----------------|
A|---3-3-3-3-3-----|-----------------|---3-3-3-3-3-3---|-------2---------|
E|-------------5---|-5-3---3-3-------|---------------5-|-5-3-5-----3-5-3-|

G|-----------------|-----------------|-----------------|-----------------|
D|-----------------|-----------------|-----------------|-----------------|
A|---3-3-3-3-3-----|-----------------|---3-3-3-3-3-3---|-------2-----2---|
E|-------------5---|-5-3---3-3-------|---------------5-|---3-3-----3---3-|


Post 🎸 Chorus:

G|-----------------|-----------------|-----------------|-----------------|
D|-----------------|-----------------|-----------------|-----------------|
A|-2-2-2-2-2-2-2-2-|-2-2-2-2-2-2-2-2-|-2-2-2-2-2-2-2-2-|-2-2-2-2-2-2-2-2-|
E|-----------------|-----------------|-----------------|-----------------|

G|-----------------|-----------------|---------------4-|-4-4-4-4-----2---|
D|-----------------|-----------------|-----------------|-----------4---4-|
A|-2-2-2-2-2-2-2-2-|-2-2-2-2-2-2-2-2-|-2-2-2-2-2-2-2---|-----------------|
E|-----------------|-----------------|-----------------|-----------------|


🎸 Outro:

G|-----------------|-----------------|-----------------|-----------------|
D|-----------------|-----------------|-----------------|-----------------|
A|-2-2-0---2-----5-|---5-4-2-5-------|-2-2-0---2-----5-|---5-4-2-5-------|
E|-----------------|-----------0-1-2-|-----------------|-----------0-1-2-|

G|-----------------|-----------------|-----------------|-----------------|
D|-----------------|-----------------|-----------------|-----------------|
A|-2-2-0---2-----5-|---5-4-2-5-------|-2-2-0---2-----5-|---5-4-2-5-------|
E|-----------------|-----------0-1-2-|-----------------|-----------0-1-2-|

G|---------------7-|---6-4-----2-----|-----------------|-----------------|
D|-----------------|---------4---4---|-----------------|-----------------|
A|-2-2-0---2-------|-----------------|-2-2-0---2-----5-|---5-4-2-5-------|
E|-----------------|-----------------|-----------------|-----------0-1-2-|

G|-----------------|-----------------|---------------7-|---6-4-----2-----|
D|-----------------|-----------------|-----------------|---------4---4---|
A|-2-2-0---2-----5-|---5-4-2-5-------|-2-2-0---2-------|---------------5-|
E|-----------------|-----------0-1-2-|-----------------|-----------------|

G|-----------------|-----------------|-----------------|-----------------|
D|-----------------|-----------------|-----------------|-----------------|
A|-2-2-0---2-----5-|---5-4-2-5-------|-2-2-0---2-----5-|---5-4-2-5-------|
E|-----------------|-----------0-1-2-|-----------------|-----------0-1-2-|
ⓘ Bass guitar tab for 'Permanent Vacation' by Aerosmith, a hard rock band formed in 1970 from Massachusetts, USA. Aerosmith is known for their philosophical rock/pop music.

Almost there ...

Sign in to get your own page with links to favourite songs and more. You are just one click away...

Login with Facebook Login with Google