Search tabs and chords

Search for song, artist or band

Log in

One click and you are in

Login with Facebook Login with Google

Why sign up and log in

Guitar Tabs Explorer
Aerosmith guitar tabs for Dream on

Intro

-------------------------------------------------------------------------------
			     Dream On - Aerosmith
-------------------------------------------------------------------------------
Tabbed by: MR20

Tuning:Normal
 Beginning of Riff A chord diagramAA                             End Riff A chord diagramAA
e|---4-----4-----3-----3-----4-----4-----3-----3-----4-----4-----6-----6-----|
B|---6-----6-----4-----4-----3-----3-----2-----2-----6-----6-----6-----6-----|
G|------5-----5-----5-----5-----5-----5-----5-----5-----5-----5-----5-----5--|
D|---------------------------------------------------------------------------|
A|---------------------------------------------------------------------------|
E|---------------------------------------------------------------------------|
        *Fm	    Cm chord diagramCmCm	      Dm7b5/F chord diagramFF    Dbmaj7#11     Fm chord diagramFmFm         Fsus4 chord diagramFsus4Fsus4
e|---8-----8-----8-----4-----4-----3-----3-----4-----4-----3-----3-----4-----|
B|---6-----6-----6-----6-----6-----4-----4-----3-----3-----2-----2-----6-----|
G|------5-----5-----5-----5-----5-----5-----5-----5-----5-----5-----5-----5--|
D|---------------------------------------------------------------------------|
A|---------------------------------------------------------------------------|
E|---------------------------------------------------------------------------|
        Fm chord diagramFmFm


e|---4-----6-----6-----8----8-----6--4---6----8----8----8--6----6------------|
B|---6-----6-----6-----6----6-----6--6---6----9----9----8--6----6------------|
G|------5-----5-----5------------------------------------------------6--5--6-|
D|---------------------------------------------------------------------------|
A|---------------------------------------------------------------------------|
E|---------------------------------------------------------------------------|
                                                Bb9 chord diagramBb9Bb9                      Eb chord diagramEbEb


e|---------------------------------------------------------------------------|
B|---------------------------------5--6//8--6--8//9--8--9//11--9h11p9--8h9p8-|
G|-5--6--5--6--5----6--5\3--5-h6--------------------------------------------|
D|---------------------------------------------------------------------------|
A|---------------------------------------------------------------------------|
E|---------------------------------------------------------------------------|
       E chord diagramEE*7

e|----------------------------|
B|--6h8p6--4h6p4---2--p1//13--|
G|----------------------------|		Repeat Riff A chord diagramAA 4 times
D|----------------------------|
A|----------------------------|
E|----------------------------|





| /  slide up
|   slide down
| h  hammer-on
| p  pull-off
| ~  vibrato
| +  harmonic
| x  Mute note

Other versions of Dream On

Dream onChords
Dream on UkuleleChords
Dream onTabs
Dream on (Ver. 2)Tabs
Dream on (Ver. 3)Tabs
Dream on IntroTabs

Almost there ...

Sign in to get your own page with links to favourite songs and more. You are just one click away...

Login with Facebook Login with Google