Log in

One click and you are in

Login with Facebook Login with Google

Why sign up and log in

Guitar Tabs Explorer
Aerosmith tabs for Crazy

Guitar tabs with lyrics

Difficulty: Advanced


CRAZY
As recorded by Aerosmith
(From the 1993 Album GET A chord diagramA augmentedA GRIP)
Words and Music by Steven Tyler, Joe Perry & Desmond Child

Gtr I (E A D G B E) - 'Semi-clean tone'
Gtr II (E A D G B E) - 'Semi-clean tone'
Gtr III (E A D G B E) - 'Fill & Solo Gtr.'
Gtr IV (E A D G B E) - 'Fill Gtr.'
Gtr V (E A D G B E) - 'Clean tone w/echo'
Gtr VI (E A D G B E) - 'Mandolin'

 Intro
  Moderately Slow Rock Q.=54
  N.C.           A chord diagramA augmentedA              A chord diagramF#m7F#m7
 12/8
  Gtr I
  W              A chord diagramE MajorE  A chord diagramE MajorE A chord diagramE MajorE a A chord diagramE MajorE A chord diagramE MajorE A chord diagramE MajorE A chord diagramE MajorE  A chord diagramE MajorE A chord diagramE MajorE a A chord diagramE MajorE A chord diagramE MajorE A chord diagramE MajorE
|--------------|----------0--------------0-----|
|--------------|--------0h2-0----------0h2-0---|
|--------------|------2-------2--------------2-|
|--------------|----2----------------4---------|
|--------------|-0-----------------4-----------|
|--------------|----------------2--------------|
|
| Gtr II
| W              Q.       A chord diagramE MajorE Q   Q.       A chord diagramE MajorE Q
|--------------|----------5--------------2-----|
|--------------|----------5--------------2-----|
|--------------|----------6--------------2-----|
|--------------|-------------------------------|
|--------------|-------------------------------|
|--------------|-------------------------------|

  A chord diagramD MajorD              A chord diagramDmDm
  A chord diagramE MajorE  A chord diagramE MajorE A chord diagramE MajorE a A chord diagramE MajorE A chord diagramE MajorE A chord diagramE MajorE A chord diagramE MajorE  A chord diagramE MajorE A chord diagramE MajorE a A chord diagramE MajorE  A chord diagramE MajorE A chord diagramE MajorE
|--------0h2-0----------0h1--0---|
|------3--------------3--------3-|
|----2---------2----2------------|
|-0--------------0---------------|
|--------------------------------|
|--------------------------------|
|
| Q.       A chord diagramE MajorE Q   Q.     a Q.
|----------2--------------5------|
|----------3------------5h6------|
|----------2--------------7------|
|--------------------------------|
|--------------------------------|
|--------------------------------|


  A chord diagramA augmentedA              A chord diagramF#m7F#m7             A chord diagramD MajorD              A chord diagramDmDm
  A chord diagramE MajorE  A chord diagramE MajorE A chord diagramE MajorE a A chord diagramE MajorE A chord diagramE MajorE A chord diagramE MajorE A chord diagramE MajorE  A chord diagramE MajorE A chord diagramE MajorE a A chord diagramE MajorE A chord diagramE MajorE A chord diagramE MajorE   A chord diagramE MajorE  A chord diagramE MajorE A chord diagramE MajorE a A chord diagramE MajorE A chord diagramE MajorE A chord diagramE MajorE A chord diagramE MajorE  A chord diagramE MajorE A chord diagramE MajorE a  A chord diagramE MajorE A chord diagramE MajorE   A chord diagramE MajorE
|----------0--------------0-----|--------0h2-0----------0h=1-0-------|
|--------0h2-0----------0h2-0---|------3-------3------3----------3---|
|------2-------2--------------2-|----2--------------2----------------|
|----2----------------4---------|-0--------------0-------------------|
|-0-----------------4-----------|------------------------------------|
|----------------2--------------|------------------------------------|
|
| Q.       A chord diagramE MajorE Q   Q.       A chord diagramE MajorE Q     Q.       A chord diagramE MajorE Q   Q.        Q    +A chord diagramE MajorE
|----------5--------------2-----|----------2--------------10---(10)\-|
|----------5--------------2-----|----------3--------------10---(10)\-|
|----------6--------------2-----|----------2--------------10---(10)\-|
|-------------------------------|------------------------------------|
|-------------------------------|------------------------------------|
|-------------------------------|------------------------------------|


 Verse
  A chord diagramA augmentedA              A chord diagramD MajorD
  Gtr I
  A chord diagramE MajorE  A chord diagramE MajorE A chord diagramE MajorE a A chord diagramE MajorE A chord diagramE MajorE A chord diagramE MajorE  A chord diagramE MajorE   A chord diagramE MajorE  A chord diagramE MajorE  a  A chord diagramE MajorE  A chord diagramE MajorE  A chord diagramE MajorE
|--------------------------------------|
|--------------------------------------|
|--------5h6---------------10h11-------|
|------7-----7----------12-------12----|
|----7---------7-----12-------------12-|
|-5--------------10--------------------|
|
| Gtr II
| Q.       A chord diagramE MajorE Q    Q.           A chord diagramE MajorE  Q
|----------5-------------------7-------|
|----------5-------------------7-------|
|----------6-------------------7-------|
|--------------------------------------|
|--------------------------------------|
|--------------------------------------|
|
| W
|--------------------------------------|
|--------------------------------------|
|--------------------------------------|
|--------------------------------------|
|--------------------------------------|
|--------------------------------------|


  A chord diagramF# minorF#m                 A chord diagramD MajorD
  A chord diagramE MajorE   A chord diagramE MajorE  A chord diagramE MajorE a  A chord diagramE MajorE  A chord diagramE MajorE  A chord diagramE MajorE  A chord diagramE MajorE   A chord diagramE MajorE    A chord diagramE MajorE  a  A chord diagramE MajorE     A chord diagramE MajorE  A chord diagramE MajorE
|------------------------------------------------|
|----------9h10----------------------------------|
|-------11------11----------------10h11----------|
|----11------------11----------12----------12----|
|-9-----------------------12------------------12-|
|---------------------10-------------------------|
|
| Q.       a  A chord diagramE MajorE  Q     Q.             Q.
|-------------5----------------------------------|
|----------5h=7-----------------------3----------|
|-------------6-----------------------2----------|
|-------------------------------------4----------|
|------------------------------------------------|
|------------------------------------------------|
|
| Gtrs III, IV
| H.                   A chord diagramE MajorE   S S  e     e     e  e
|------------------------------------------------|
|------------------------------------------------|
|-------------------------------7-----9-----9--7-|
|-------------------------------7-----7-----7--7-|
|--------------------------7h9-----------7h=9----|
|------------------------------------------------|
  H.                   Q.             A chord diagramE MajorE  a  A chord diagramE MajorE  A chord diagramE MajorE


  A chord diagramA augmentedA               A chord diagramD MajorD
  A chord diagramE MajorE  A chord diagramE MajorE A chord diagramE MajorE a A chord diagramE MajorE  A chord diagramE MajorE A chord diagramE MajorE  A chord diagramE MajorE   A chord diagramE MajorE  A chord diagramE MajorE  a  A chord diagramE MajorE  A chord diagramE MajorE  A chord diagramE MajorE
|---------------------------------------|
|---------------------------------------|
|--------5h6----------------10h11-------|
|------7------7----------12-------12----|
|----7----------7-----12-------------12-|
|-5---------------10--------------------|
|
| Q.       A chord diagramE MajorE  Q    Q.           A chord diagramE MajorE  Q
|----------5\---------------------------|
|-2--------5\-------------------7-------|
|-2-----------------------------7-------|
|-2-----------------------------7-------|
|---------------------------------------|
|---------------------------------------|
|
| Q.       Q.      H.
|---------------------------------------|
|---------------------------------------|
|-6-------------------------------------|
|-7-------------------------------------|
|---------------------------------------|
|---------------------------------------|


  A chord diagramF# minorF#m                 A chord diagramD MajorD
  A chord diagramE MajorE   A chord diagramE MajorE  A chord diagramE MajorE a  A chord diagramE MajorE  A chord diagramE MajorE  A chord diagramE MajorE  A chord diagramE MajorE   A chord diagramE MajorE  A chord diagramE MajorE  a  A chord diagramE MajorE  A chord diagramE MajorE    A chord diagramE MajorE
|----------------------------------------------|
|----------9h10--------------------------------|
|-------11------11--------------10h11----------|
|----11------------11--------12-------12-------|
|-9-----------------------12---------------12--|
|---------------------10-----------------------|
|
| Q.       a  A chord diagramE MajorE  Q     Q.           A chord diagramE MajorE  S S  A chord diagramE MajorE
|-------------5--------------------------------|
|----------5h=7--------------------------------|
|-------------6---------------------7-------7--|
|-----------------------------------7-------7--|
|--------------------------------------7s9-----|
|----------------------------------------------|
|
| W
|----------------------------------------------|
|----------------------------------------------|
|----------------------------------------------|
|----------------------------------------------|
|----------------------------------------------|
|----------------------------------------------|


 Pre-Chorus
  A chord diagramE MajorE                   A chord diagramF#m7F#m7
  A chord diagramE MajorE  A chord diagramE MajorE A chord diagramE MajorE a  A chord diagramE MajorE   A chord diagramE MajorE A chord diagramE MajorE    A chord diagramE MajorE  A chord diagramE MajorE   A chord diagramE MajorE   a A chord diagramE MajorE    A chord diagramE MajorE    A chord diagramE MajorE
|-----------------------------------0-----------|
|-----------0---------------------0h2----0------|
|--------0h=1---------------------------------2-|
|------2--------2-------------4-----------------|
|----2------------2-------4---------------------|
|-0--------------------2------------------------|
|
| A chord diagramE MajorE  Q      A chord diagramE MajorE   A chord diagramE MajorE A chord diagramE MajorE   +A chord diagramE MajorE  S S S S   A chord diagramE MajorE   +S  S A chord diagramE MajorE
|----0------------------------------------------|
|----0------------------------2-4---4b5r(4)p2---|
|-----------------------------2-4---4b6r(4)p2---|
|---------------2---------2-4-----------------4-|
|---------------2-------------------------------|
|-0--------/4-----2b4r(2)-----------------------|
|
| Gtr III
| Q.        Q     A chord diagramE MajorE   +Q.           Q.
|-----------------------------------------------|
|-----------7b9---7b9r(7)-----------------------|
|-----------------------------------------------|
|-----------------------------------------------|
|-----------------------------------------------|
|-----------------------------------------------|


  A chord diagramG+G                 A chord diagramD MajorD
  Q.         Q    A chord diagramE MajorE   A chord diagramE MajorE  A chord diagramE MajorE  A chord diagramE MajorE  Q     A chord diagramE MajorE
|-3----------3----3---2--2--2--2-----2--|
|-3----------3----3---3--3--3--3-----3--|
|-0----------0----0---2--2--2--2-----2--|
|-0----------0----0---0--0--0--0-----0--|
|---------------------------------------|
|-3----------3----3---------------------|
|
| A chord diagramE MajorE     A chord diagramE MajorE A chord diagramE MajorE +A chord diagramE MajorE  A chord diagramE MajorE A chord diagramE MajorE   A chord diagramE MajorE  A chord diagramE MajorE  A chord diagramE MajorE  A chord diagramE MajorE  A chord diagramE MajorE  A chord diagramE MajorE
|-3-------7-(7)-7---/14-14----14----14\-|
|-3-------------------------------------|
|-0----/7---------7-/14----14----14-----|
|---------------------------------------|
|---------------------------------------|
|---------------------------------------|
|
| A chord diagramE MajorE  a  A chord diagramE MajorE A chord diagramE MajorE  Q    A chord diagramE MajorE   Q     A chord diagramE MajorE  Q     A chord diagramE MajorE
|---------------------------------------|
|---------------------------------------|
|----2s=4-2--2----2---2-----2--2-----2--|
|---------------------------------------|
|---------------------------------------|
|---------------------------------------|


  A chord diagramE MajorE                   A chord diagramF#m7F#m7
  A chord diagramE MajorE  A chord diagramE MajorE A chord diagramE MajorE a  A chord diagramE MajorE   A chord diagramE MajorE A chord diagramE MajorE    A chord diagramE MajorE  A chord diagramE MajorE   A chord diagramE MajorE   a A chord diagramE MajorE     A chord diagramE MajorE A chord diagramE MajorE
|-----------------------------------0---------|
|-----------0---------------------0h2-----0---|
|--------0h=1-------------------------------2-|
|------2--------2-------------4---------------|
|----2------------2-------4-------------------|
|-0--------------------2----------------------|
|
|                                   |-3-|
| A chord diagramE MajorE  Q      A chord diagramE MajorE   A chord diagramE MajorE A chord diagramE MajorE   +A chord diagramE MajorE  S S S S   S S S Q
|----0----------------------------------------|
|----0------------------------2-4---5p4p2-----|
|-----------------------------2-4---5p4p2-----|
|---------------2-------------------------4---|
|-------------------------2-4-----------------|
|-0--------/4-----2b4r(2)---------------------|
|
| Q.        Q     A chord diagramE MajorE   +Q.           Q.
|---------------------------------------------|
|-----------7b9---7b9r(7)---------------------|
|---------------------------------------------|
|---------------------------------------------|
|---------------------------------------------|
|---------------------------------------------|


  A chord diagramG+G               A chord diagramD MajorD
  Q.        A chord diagramE MajorE A chord diagramE MajorE A chord diagramE MajorE   A chord diagramE MajorE  A chord diagramE MajorE  A chord diagramE MajorE   A chord diagramE MajorE    A chord diagramE MajorE  A chord diagramE MajorE
|-3---------3-3-3---2---------4----------|
|-3---------3-3-3------3-----------5-----|
|-0---------0-0-0---------2-----------4--|
|-0---------0-0-0------------------------|
|----------------------------------------|
|-3---------3-3-3------------------------|
|
| Q      A chord diagramE MajorE  A chord diagramE MajorE A chord diagramE MajorE A chord diagramE MajorE   A chord diagramE MajorE  A chord diagramE MajorE  A chord diagramE MajorE   A chord diagramE MajorE    A chord diagramE MajorE  A chord diagramE MajorE
|-3------3----7-------14----------16-----|
|-3----------------------------------17--|
|-0--------/7---7-/14----14-/16----------|
|----------------------------------------|
|----------------------------------------|
|----------------------------------------|
|
| A chord diagramE MajorE  a A chord diagramE MajorE A chord diagramE MajorE  Q   A chord diagramE MajorE   A chord diagramE MajorE  A chord diagramE MajorE  A chord diagramE MajorE   S S  A chord diagramE MajorE  A chord diagramE MajorE
|----------------------------------------|
|----------------------------------------|
|----2s4-2--2---2---2--2--2---2s4--4--4--|
|----------------------------------------|
|----------------------------------------|
|----------------------------------------|


 Chorus
  A chord diagramE MajorE                   A chord diagramF# minorF#m
   A chord diagramE MajorE    A chord diagramE MajorE A chord diagramE MajorE a  A chord diagramE MajorE  A chord diagramE MajorE A chord diagramE MajorE A chord diagramE MajorE  A chord diagramE MajorE A chord diagramE MajorE a  A chord diagramE MajorE  A chord diagramE MajorE A chord diagramE MajorE
|--------------0----------------0------|
|-----------0h=2--0----------0h=2--0---|
|---------2---------2----------------2-|
|-------2------------------4-----------|
|--0---------------------4-------------|
|---------------------2----------------|
|
|  Q.          A chord diagramE MajorE  Q   Q.        A chord diagramE MajorE  Q
|-------------17\---------------2------|
|-17----------17\---------------2------|
|-16b18-------------------------2------|
|--------------------------------------|
|--------------------------------------|
|--------------------------------------|
|
| Gtr V
|              ~~~              ~~~
|  Q.          Q.     Q.        Q.
|--------------5---------------!2------|
|--------------5---------------!2------|
|--------------6---------------!2------|
|--------------------------------------|
|--------------------------------------|
|--------------------------------------|


  A chord diagramD MajorD                  A chord diagramDmDm                     A chord diagramA augmentedA               A chord diagramF#m7F#m7
  A chord diagramE MajorE  A chord diagramE MajorE  A chord diagramE MajorE    a A chord diagramE MajorE A chord diagramE MajorE A chord diagramE MajorE A chord diagramE MajorE  A chord diagramE MajorE A chord diagramE MajorE a  A chord diagramE MajorE  A chord diagramE MajorE   A chord diagramE MajorE     A chord diagramE MajorE  A chord diagramE MajorE A chord diagramE MajorE a A chord diagramE MajorE  A chord diagramE MajorE A chord diagramE MajorE A chord diagramE MajorE  A chord diagramE MajorE A chord diagramE MajorE a  A chord diagramE MajorE  A chord diagramE MajorE A chord diagramE MajorE
|------------0h2-0----------0h=1--0-------|----------0----------------0-------|
|-------3-----------------3-----------3---|--------0h2--0----------0h=2--0----|
|----2-------------2----2-----------------|------2--------2----------------2--|
|-0------------------0--------------------|----2-----------------4------------|
|-----------------------------------------|-0------------------4--------------|
|-----------------------------------------|-----------------2-----------------|
|
| Q.           Q   A chord diagramE MajorE Q.        Q     +A chord diagramE MajorE     Q.       A chord diagramE MajorE  Q   Q.        A chord diagramE MajorE  Q
|-----------------------------10----(10)\-|----------5----------------2-------|
|-----------------------------10----(10)\-|----------5----------------2-------|
|--------------7--------------10----(10)\-|----------6----------------2-------|
|--------------7--------------------------|-----------------------------------|
|--------------5--------------------------|-----------------------------------|
|-----------------------------------------|-----------------------------------|
|
|                    ~~~~~~~~~~~~~                   ~~               ~~~
| Q    +S  S   A chord diagramE MajorE A chord diagramE MajorE A chord diagramE MajorE Q.        Q.           Q.       Q.     Q.        Q.
|--------------------5---------5----------|----------5---------------!2-------|
|--------------3-----6---------6----------|--------------------------!2-------|
|----------------2---7---------7----------|--------------------------!2-------|
|-0----(0)-0-------4----------------------|-----------------------------------|
|-----------------------------------------|-----------------------------------|
|-----------------------------------------|-----------------------------------|


  A chord diagramD MajorD             A chord diagramE MajorE                      A chord diagramA augmentedA               A chord diagramF#m7F#m7
  A chord diagramE MajorE  A chord diagramE MajorE A chord diagramE MajorE A chord diagramE MajorE  A chord diagramE MajorE A chord diagramE MajorE A chord diagramE MajorE A chord diagramE MajorE A chord diagramE MajorE  A chord diagramE MajorE    A chord diagramE MajorE    A chord diagramE MajorE     A chord diagramE MajorE  A chord diagramE MajorE A chord diagramE MajorE a A chord diagramE MajorE  A chord diagramE MajorE A chord diagramE MajorE A chord diagramE MajorE  A chord diagramE MajorE A chord diagramE MajorE a A chord diagramE MajorE  A chord diagramE MajorE A chord diagramE MajorE
|----2-2-2--2-2---0-0--0----0----0---|----------0---------------0------|
|----3-3-3--3-3---0-0--0----0----0---|--------0h2--0----------0h2--0---|
|----2-2-2--2-2---1-1--1----1----1---|------2--------2---------------2-|
|-0--0-0-0--0-0---2-2--2----2----2---|----2-----------------4----------|
|-----------------2-2--2----2----2---|-0------------------4------------|
|---------------0-0-0--0----0----0---|-----------------2---------------|
|
| Q.     A chord diagramE MajorE  Q   A chord diagramE MajorE A chord diagramE MajorE A chord diagramE MajorE  A chord diagramE MajorE    A chord diagramE MajorE    A chord diagramE MajorE     Q.       A chord diagramE MajorE  Q   Q.       A chord diagramE MajorE  Q
|------------------------------------|----------5---------------2------|
|------------------------------------|----------5---------------2------|
|--------7--------9-9--9----9----9---|----------6---------------2------|
|--------7--------9-9--9----9----9---|---------------------------------|
|--------5--------7-7--7----7----7---|---------------------------------|
|------------------------------------|---------------------------------|
|
|                      \1/  \1/  \1/
|                                               ~~              ~~
| Q.     Q.     A chord diagramE MajorE A chord diagramE MajorE A chord diagramE MajorE +A chord diagramE MajorE   +A chord diagramE MajorE   +A chord diagramE MajorE     Q.       Q.     Q.       Q.
|------------------------------------|----------5---------------2------|
|------------------------------------|----------5---------------2------|
|---------------9-9-9-(9)--(9)--(9)--|----------6---------------2------|
|-0------0------9-9-9-(9)--(9)--(9)--|---------------------------------|
|---------------7-7-7-(7)--(7)--(7)--|---------------------------------|
|------------------------------------|---------------------------------|


  A chord diagramD MajorD                  A chord diagramDmDm
  A chord diagramE MajorE  A chord diagramE MajorE A chord diagramE MajorE a A chord diagramE MajorE A chord diagramE MajorE   A chord diagramE MajorE    A chord diagramE MajorE  A chord diagramE MajorE A chord diagramE MajorE a  A chord diagramE MajorE  A chord diagramE MajorE  A chord diagramE MajorE
|--------0h2-0---------------0h=1--0------|
|------3-------------------3----------3---|
|----2-----------2-------2----------------|
|-0-------------------0-------------------|
|-----------------------------------------|
|-----------------------------------------|
|
| Q.       A chord diagramE MajorE Q        Q.        A chord diagramE MajorE  Q
|-------------------------------5---------|
|-------------------------------6---------|
|----------7--------------------7---------|
|----------7------------------------------|
|----------5------------------------------|
|-----------------------------------------|
|
|                     ~~~
| Q.       A chord diagramE MajorE S S S S  Q.        A chord diagramE MajorE  A chord diagramE MajorE  A chord diagramE MajorE
|------------------------------10---------|
|------------------7s10-----------10------|
|------------------7s10--------------10---|
|----------0-0-0-0----0-------------------|
|-----------------------------------------|
|-----------------------------------------|


  A chord diagramB minorBm            A chord diagramE MajorE
  A chord diagramE MajorE  A chord diagramE MajorE A chord diagramE MajorE A chord diagramE MajorE  A chord diagramE MajorE A chord diagramE MajorE A chord diagramE MajorE  A chord diagramE MajorE A chord diagramE MajorE a  A chord diagramE MajorE  A chord diagramE MajorE A chord diagramE MajorE
|--------------------------------|
|--------3----------------0------|
|------4----4----------0h=1------|
|----4--------4------2-------2---|
|-2----------------2-----------2-|
|---------------0----------------|
|
| Q.     Q.     Q.     a  Q.
|--------7-----------------------|
|--------7-----------------------|
|--------7----------------9------|
|-------------------------9------|
|----------------------9h11------|
|--------------------------------|
|
| Q.     Q.     H.
|--------------------------------|
|--------------------------------|
|---------------9----------------|
|--------9------9----------------|
|--------9------7----------------|
|--------7-----------------------|


  A chord diagramC#C#            A chord diagramF# minorF#m       A chord diagramE MajorE        A chord diagramD MajorD       A chord diagramDmDm
   A chord diagramE MajorE  A chord diagramE MajorE A chord diagramE MajorE A chord diagramE MajorE A chord diagramE MajorE A chord diagramE MajorE  Q.       Q.       H.       H.
|--------------------------------|---------^5------------|
|---------6-----10--------9------|-7-------^6------------|
|-----6-6---6---11--------9------|-7-------^7------------|
|-----6-6-----6-11--------9------|-7-------^7------------|
|--4--4-4--------9--------7------|-5-------^5------------|
|--------------------------------|-----------------------|
|
|  Q.     A chord diagramE MajorE A chord diagramE MajorE A chord diagramE MajorE  A chord diagramE MajorE   A chord diagramE MajorE  A chord diagramE MajorE A chord diagramE MajorE  A chord diagramE MajorE A chord diagramE MajorE   H.       Q.   +Q   A chord diagramE MajorE
|-----------9--------------------|---------^5----(5)--5--|
|-----------9--------------------|---------^6----(6)--6--|
|----------------------11------9-|-7-------^7----(7)--7--|
|-------------------11-------9---|-7-------^7----(7)-----|
|----------------9--------7------|-5-------^5----(5)-----|
|-------------9------------------|-----------------------|
|
|                                           ~~~
|  Q.     A chord diagramE MajorE Q    A chord diagramE MajorE   A chord diagramE MajorE  A chord diagramE MajorE A chord diagramE MajorE  A chord diagramE MajorE A chord diagramE MajorE   H.       H.
|---------9----------------------|---------^5------------|
|---------9----------------------|---------^6------------|
|----------------------11------9-|-7-------^7------------|
|-11----------------11-------9---|-7-------^7------------|
|-11-------------9--------7------|-5-------^5------------|
|--9-----------------------------|-----------------------|


 Verse
  A chord diagramA augmentedA                    A chord diagramF#m7F#m7
   A chord diagramE MajorE  A chord diagramE MajorE A chord diagramE MajorE a   A chord diagramE MajorE   A chord diagramE MajorE  A chord diagramE MajorE  A chord diagramE MajorE  A chord diagramE MajorE A chord diagramE MajorE a   A chord diagramE MajorE   A chord diagramE MajorE  A chord diagramE MajorE
|-------------0--------------------0--------|
|---------0h==2---0------------0h==2---0----|
|-------2------------2--------------------2-|
|-----2----------------------4--------------|
|--0-----------------------4----------------|
|-----------------------2-------------------|
|
|  Q.         A chord diagramE MajorE   Q     Q.         A chord diagramE MajorE   Q
|-------------5-----------------------------|
|-------------5--------------------7--------|
|-------------6--------------------7--------|
|----------------------------------7--------|
|-------------------------------------------|
|-------------------------------------------|
|
| Gtr VI
|  TP         TP  TP TP TP         TP  TP TP
|  Q.        +A chord diagramE MajorE   A chord diagramE MajorE  A chord diagramE MajorE  Q.        +A chord diagramE MajorE   A chord diagramE MajorE  A chord diagramE MajorE
|-------------------12-14--------(14)-12----|
|-14--------(14)-15----------------------15-|
|-------------------------------------------|
|-------------------------------------------|
|-------------------------------------------|
|-------------------------------------------|


  A chord diagramD MajorD                   A chord diagramDmDm
   A chord diagramE MajorE  A chord diagramE MajorE A chord diagramE MajorE a  A chord diagramE MajorE   A chord diagramE MajorE  A chord diagramE MajorE  A chord diagramE MajorE  A chord diagramE MajorE A chord diagramE MajorE   a A chord diagramE MajorE    A chord diagramE MajorE     A chord diagramE MajorE
|---------0h=2---0--------------0h1----0--------|
|-------3-------------------3----------------3--|
|-----2-------------2-----2---------------------|
|--0-------------------0------------------------|
|-----------------------------------------------|
|-----------------------------------------------|
|
|  Q.        A chord diagramE MajorE   A chord diagramE MajorE  A chord diagramE MajorE  Q    S S   S S  T T S A chord diagramE MajorE
|-----------------------------------------------|
|-----------------------------------------------|
|-----------11--------------------7-9--9--------|
|---------------11\---------------7-9-10p9p7-9--|
|----------------9\----5----7s9-----------------|
|-----------------------------------------------|
|
|  TP        TP        TP
|  Q.        Q.        H.
|-----------------------------------------------|
|-14--------------------------------------------|
|-----------14----------------------------------|
|---------------------12------------------------|
|-----------------------------------------------|
|-----------------------------------------------|


  A chord diagramA augmentedA                    A chord diagramF# minorF#m
   A chord diagramE MajorE  A chord diagramE MajorE A chord diagramE MajorE a   A chord diagramE MajorE   A chord diagramE MajorE  A chord diagramE MajorE  A chord diagramE MajorE  A chord diagramE MajorE A chord diagramE MajorE a   A chord diagramE MajorE   A chord diagramE MajorE  A chord diagramE MajorE
|-------------0--------------------0--------|
|---------0h==2---0------------0h==2---0----|
|-------2------------2--------------------2-|
|-----2----------------------4--------------|
|--0-----------------------4----------------|
|-----------------------2-------------------|
|
|  Q.         A chord diagramE MajorE   Q     Q.         A chord diagramE MajorE   Q
|-------------5-----------------------------|
|-------------5--------------------7--------|
|-------------6--------------------7--------|
|--7-------------------------------7--------|
|-------------------------------------------|
|-------------------------------------------|
|
|  TP         TP  TP TP TP         TP  TP TP
|  Q.        +A chord diagramE MajorE   A chord diagramE MajorE  A chord diagramE MajorE  Q.        +A chord diagramE MajorE   A chord diagramE MajorE  A chord diagramE MajorE
|-12--------(12)-14-16-17--------(17)-19-21-|
|----------------15-17----------------------|
|-------------------------------------------|
|-------------------------------------------|
|-------------------------------------------|
|-------------------------------------------|


                    A chord diagramD MajorD
  Gtr III
    H.               S S A chord diagramE MajorE a A chord diagramE MajorE  A chord diagramE MajorE   A chord diagramE MajorE  A chord diagramE MajorE
|-----------------------------------------|
|-----------------------------------------|
|-----------------------------------------|
|------------------------7-7h9--7---------|
|--------------------7h9------------7--7--|
|-----------------------------------------|
|
|   Q.   a  A chord diagramE MajorE  A chord diagramE MajorE  A chord diagramE MajorE  Q.        +A chord diagramE MajorE   A chord diagramE MajorE  A chord diagramE MajorE
|-----------9-------------------------12--|
|----------10-----------------------------|
|--------9h11--------7---------(7)-/9-----|
|--------------------7---------(7)--------|
|----------------/9-----------------------|
|-----------------------------------------|
|
|   TP      TP       TP
|  +Q.      Q.       H.
|-(21)-----17-----------------------------|
|-------------------19--------------------|
|-----------------------------------------|
|-----------------------------------------|
|-----------------------------------------|
|-----------------------------------------|


 Pre-Chorus
  A chord diagramE MajorE                    A chord diagramF#m7F#m7
  Gtr I
   A chord diagramE MajorE  A chord diagramE MajorE A chord diagramE MajorE a  A chord diagramE MajorE  A chord diagramE MajorE  A chord diagramE MajorE    A chord diagramE MajorE  A chord diagramE MajorE   A chord diagramE MajorE   a A chord diagramE MajorE      A chord diagramE MajorE  A chord diagramE MajorE
|------------------------------------0-----------|
|------------0---------------------0h2------0----|
|---------0h=1---------------------------------2-|
|-------2-------2--------------4-----------------|
|-----2------------2-------4---------------------|
|--0--------------------2------------------------|
|
|                                    |-3-|
|  A chord diagramE MajorE  Q      A chord diagramE MajorE  A chord diagramE MajorE  A chord diagramE MajorE   +A chord diagramE MajorE  S S S S   S S S  A chord diagramE MajorE  A chord diagramE MajorE
|-----0----------------------------------------2-|
|-----0------------------------2-4---5s4p2-----2-|
|--------------------------2-4-2-4---5s4p2-------|
|---------------2----------2-4--------------4----|
|------------------------------------------------|
|--0--------/4-----2b4r(2)-----------------------|
|
|  TP
|  Q.        A chord diagramE MajorE  A chord diagramE MajorE  A chord diagramE MajorE    Q.           A chord diagramE MajorE      A chord diagramE MajorE  A chord diagramE MajorE
|------------------------------------------------|
|-17--------17-14-14---14------------------14-14-|
|------------------------------------------------|
|------------------------------------------------|
|------------------------------------------------|
|------------------------------------------------|


  A chord diagramG+G               A chord diagramD MajorD
   Q.     Q     A chord diagramE MajorE  A chord diagramE MajorE     A chord diagramE MajorE     A chord diagramE MajorE     Q          A chord diagramE MajorE
|--3------3-----3--2-----2-----2-----2----------2----|
|--3------3-----3--3-----3-----3-----3----------3----|
|--0------0-----0--2-----2-----2-----2----------2----|
|--0------0-----0--0-----0-----0-----0----------0----|
|----------------------------------------------------|
|--3------3-----3------------------------------------|
|
|  A chord diagramE MajorE  Q   A chord diagramE MajorE  A chord diagramE MajorE  A chord diagramE MajorE  S  S  S  S  S  S  S   S  A chord diagramE MajorE  +A chord diagramE MajorE
|-----3------7----------14----14----14-----14-(14)\--|
|-----3----------------------------------------------|
|-----0--/7-----7--7s14----14----14-----14-----------|
|----------------------------------------------------|
|----------------------------------------------------|
|--3-------------------------------------------------|
|
|  Q.     A chord diagramE MajorE  A chord diagramE MajorE  A chord diagramE MajorE  Q.                Q.
|----------------------------------------------------|
|----------------------------------------------------|
|-16--------16-16-14----------------14---------------|
|----------------------------------------------------|
|----------------------------------------------------|
|----------------------------------------------------|


  A chord diagramE MajorE                  A chord diagramF#m7F#m7
  A chord diagramE MajorE  A chord diagramE MajorE A chord diagramE MajorE a  A chord diagramE MajorE A chord diagramE MajorE  A chord diagramE MajorE    A chord diagramE MajorE  A chord diagramE MajorE   A chord diagramE MajorE   a A chord diagramE MajorE      A chord diagramE MajorE  A chord diagramE MajorE
|----------------------------------0-----------|
|-----------0--------------------0h2------0----|
|--------0h=1--------------------------------2-|
|------2------2--------------4-----------------|
|----2-----------2-------4---------------------|
|-0-------------------2------------------------|
|
|                                  |-3-|
| A chord diagramE MajorE  Q      A chord diagramE MajorE A chord diagramE MajorE  A chord diagramE MajorE   +A chord diagramE MajorE  S S S S   S S S  A chord diagramE MajorE  A chord diagramE MajorE
|----0---------------------------------------2-|
|----0-----------------------2-4---5s4p2-----2-|
|------------------------2-4-2-4---5s4p2-------|
|-------------2----------2-4--------------4----|
|----------------------------------------------|
|-0--------/4----2b4r(2)-----------------------|
|
| Q.        Q    A chord diagramE MajorE    Q.           A chord diagramE MajorE      A chord diagramE MajorE  A chord diagramE MajorE
|----------------------------------------------|
|----------17--------14------------------14-14-|
|---------------16-----------------------------|
|----------------------------------------------|
|----------------------------------------------|
|----------------------------------------------|


  A chord diagramG+G                A chord diagramD MajorD                A chord diagramE MajorE
   Q.      A chord diagramE MajorE  A chord diagramE MajorE  A chord diagramE MajorE   A chord diagramE MajorE   A chord diagramE MajorE     A chord diagramE MajorE     A chord diagramE MajorE      A chord diagramE MajorE     A chord diagramE MajorE
|--3-------3--3--3---2---------------4-----------------||
|--3-------3--3--3-------3------------------5----------||
|--0-------0--0--0-------------2------------------4----||
|--0-------0--0--0-------------------------------------||
|------------------------------------------------------||
|--3-------3--3--3-------------------------------------||
|
|  A chord diagramE MajorE  A chord diagramE MajorE  A chord diagramE MajorE A chord diagramE MajorE  A chord diagramE MajorE  A chord diagramE MajorE   A chord diagramE MajorE   S  S  S  S  S   S  S  S  S  S
|-----3----7-----7------14----14--------16----16----16-||
|-----3------------------------------------------------||
|-----0-/7---/7----/14-----14----14S16-----16----16----||
|------------------------------------------------------||
|------------------------------------------------------||
|--3---------------------------------------------------||
|
|                    TP              TP
|  Q.      A chord diagramE MajorE  A chord diagramE MajorE  A chord diagramE MajorE   Q.              Q.
|------------------------------------------------------||
|------------------------------------------------------||
|-16---------16-16--14--------------16-----------------||
|------------------------------------------------------||
|------------------------------------------------------||
|------------------------------------------------------||


 Chorus
  A chord diagramA augmentedA                      A chord diagramF#m7F#m7
   A chord diagramE MajorE    A chord diagramE MajorE   A chord diagramE MajorE  a  A chord diagramE MajorE  A chord diagramE MajorE A chord diagramE MajorE A chord diagramE MajorE  A chord diagramE MajorE A chord diagramE MajorE a  A chord diagramE MajorE  A chord diagramE MajorE A chord diagramE MajorE
|-----------------0----------------0------|
|--------------0h=2--0----------0h=2--0---|
|-----------2----------2----------------2-|
|-------2---------------------4-----------|
|--0------------------------4-------------|
|------------------------2----------------|
|
|  Q       +A chord diagramE MajorE     Q    A chord diagramE MajorE Q.        A chord diagramE MajorE  Q
|----------------17\--------------14------|
|----------------17\--------------14------|
|-16b18---(16)--------------------14------|
|-----------------------------------------|
|-----------------------------------------|
|-----------------------------------------|
|
| Gtr V
|                 ~~~              ~~~
|  Q.             Q.     Q.        Q.
|-----------------5-----------------------|
|-----------------5---------------^2------|
|-----------------6---------------^2------|
|---------------------------------^4------|
|-----------------------------------------|
|-----------------------------------------|


  A chord diagramD MajorD              A chord diagramDmDm               A chord diagramA augmentedA               A chord diagramF#m7F#m7
  A chord diagramE MajorE  A chord diagramE MajorE A chord diagramE MajorE a A chord diagramE MajorE A chord diagramE MajorE A chord diagramE MajorE A chord diagramE MajorE  A chord diagramE MajorE A chord diagramE MajorE a A chord diagramE MajorE A chord diagramE MajorE A chord diagramE MajorE   A chord diagramE MajorE  A chord diagramE MajorE A chord diagramE MajorE a A chord diagramE MajorE  A chord diagramE MajorE A chord diagramE MajorE A chord diagramE MajorE  A chord diagramE MajorE A chord diagramE MajorE a A chord diagramE MajorE  A chord diagramE MajorE A chord diagramE MajorE
|--------0h2-0----------0h1-0---|----------0---------------0--------|
|------3--------------3-------3-|--------0h2--0----------0h2--0-----|
|----2---------2----2-----------|------2--------2---------------2---|
|-0--------------0--------------|----2-----------------4------------|
|-------------------------------|-0------------------4--------------|
|-------------------------------|-----------------2-----------------|
|
| Q.       A chord diagramE MajorE Q   Q.       A chord diagramE MajorE Q     Q.       A chord diagramE MajorE  Q   Q.       A chord diagramE MajorE  Q
|-------------------------5-----|----------5---------------2--------|
|-------------------------6-----|----------5---------------2--------|
|----------7--------------7-----|----------6---------------2--------|
|----------7--------------------|-----------------------------------|
|----------5--------------------|-----------------------------------|
|-------------------------------|-----------------------------------|
|
|                ~~                        ~~              ~~
| Q.       A chord diagramE MajorE A chord diagramE MajorE A chord diagramE MajorE H.               Q.       Q.     Q.       Q.
|----------------5--------------|----------5------------------------|
|----------------6--------------|--------------------------7--------|
|----------7-----7--------------|-----------------------------------|
|------------7------------------|-----------------------------------|
|-5------------5----------------|-----------------------------------|
|-------------------------------|-----------------------------------|


  A chord diagramD MajorD                A chord diagramA augmentedA A chord diagramE MajorE               A chord diagramA augmentedA               A chord diagramF#m7F#m7
  A chord diagramE MajorE  A chord diagramE MajorE A chord diagramE MajorE A chord diagramE MajorE A chord diagramE MajorE  A chord diagramE MajorE    A chord diagramE MajorE A chord diagramE MajorE A chord diagramE MajorE A chord diagramE MajorE A chord diagramE MajorE     A chord diagramE MajorE   A chord diagramE MajorE  A chord diagramE MajorE A chord diagramE MajorE a A chord diagramE MajorE  A chord diagramE MajorE A chord diagramE MajorE A chord diagramE MajorE  A chord diagramE MajorE A chord diagramE MajorE a A chord diagramE MajorE  A chord diagramE MajorE A chord diagramE MajorE
|----2-2-2-2--2------0-0-0-0-----0-|----------0---------------0------|
|----3-3-3-3--3------0-0-0-0-----0-|--------0h2--0----------0h2--0---|
|----2-2-2-2--2------1-1-1-1-----1-|------2--------2---------------2-|
|-0--0-0-0-0--0------2-2-2-2-----2-|----2-----------------4----------|
|------------------0-2-2-2-2-----2-|-0------------------4------------|
|--------------------0-0-0-0-----0-|-----------------2---------------|
|
|                          |-3-|
| Q.     Q    A chord diagramE MajorE    Q   A chord diagramE MajorE A chord diagramE MajorE S S S A chord diagramE MajorE   Q.       A chord diagramE MajorE  Q   Q.       A chord diagramE MajorE  Q
|----------------------------------|----------5---------------2------|
|----------------------9-9-9-9-9-9-|----------5---------------2------|
|--------7-------------9-9-9-9-9-9-|----------6---------------2------|
|--------7-------------9-9-9-9-9-9-|---------------------------------|
|--------5-------------7-7-7-7-7-7-|---------------------------------|
|----------------------------------|---------------------------------|
|
|        ~                                    ~~              ~~
| Q.     Q   +S  S A chord diagramE MajorE A chord diagramE MajorE A chord diagramE MajorE A chord diagramE MajorE A chord diagramE MajorE     A chord diagramE MajorE   Q.       Q.     Q.       Q.
|----------------------------------|----------5---------------2------|
|----------------------------------|----------5---------------2------|
|--------7---(7)---------9-9-----9-|----------6---------------2------|
|--------7---(7)---------9-9-----9-|---------------------------------|
|-5------5---(5)-7---7-7-7-7-----7-|---------------------------------|
|------------------0-0-0-0-0-----0-|---------------------------------|


  A chord diagramD MajorD              A chord diagramDmDm
  A chord diagramE MajorE  A chord diagramE MajorE A chord diagramE MajorE a A chord diagramE MajorE A chord diagramE MajorE A chord diagramE MajorE  A chord diagramE MajorE  A chord diagramE MajorE A chord diagramE MajorE a A chord diagramE MajorE    A chord diagramE MajorE A chord diagramE MajorE
|--------0h2-0-----------0h1----0----|
|------3---------------3----------3--|
|----2---------2-----2---------------|
|-0---------------0------------------|
|------------------------------------|
|------------------------------------|
|
| Q.       A chord diagramE MajorE Q    Q.       A chord diagramE MajorE    A chord diagramE MajorE A chord diagramE MajorE
|------------------------------------|
|--------------------------6----6-6--|
|----------7---------------9b11-9-7--|
|----------7-------------------------|
|----------5-------------------------|
|------------------------------------|
|
|                 ~~~
| Q.       A chord diagramE MajorE A chord diagramE MajorE A chord diagramE MajorE  H.
|------------------------------------|
|----------7---7-^6------------------|
|----------7-7---^7------------------|
|----------7-----^7------------------|
|-5--------------^5------------------|
|------------------------------------|


  A chord diagramB minorBm            A chord diagramE MajorE
  A chord diagramE MajorE  A chord diagramE MajorE A chord diagramE MajorE A chord diagramE MajorE  A chord diagramE MajorE A chord diagramE MajorE A chord diagramE MajorE  A chord diagramE MajorE A chord diagramE MajorE a  A chord diagramE MajorE  A chord diagramE MajorE A chord diagramE MajorE
|-----------------------------------|
|--------3----------------0---------|
|------4----4----------0h=1---------|
|----4--------4------2-------2------|
|-2----------------2-----------2----|
|---------------0-------------------|
|
| Q.     A chord diagramE MajorE  Q   Q.     a  A chord diagramE MajorE  A chord diagramE MajorE S  S
|--------7--------------------------|
|--------7--------------------------|
|--------7-------------------9-9----|
|---------------9---------9--9-9h11-|
|---------------7------9h11---------|
|-----------------------------------|
|
|                         ~~~
| Q.     Q.     Q.        Q.
|--------7--------------------------|
|-------------------------9---------|
|-----------------------------------|
|-----------------------------------|
|-----------------------------------|
|-----------------------------------|


  A chord diagramC#C#            A chord diagramF# minorF#m       A chord diagramE MajorE        A chord diagramD MajorD          A chord diagramDmDm
  A chord diagramE MajorE  A chord diagramE MajorE A chord diagramE MajorE A chord diagramE MajorE  A chord diagramE MajorE A chord diagramE MajorE  Q.       Q.       H.          H.
|--------------------------------|------------^5-----|
|--------6------10--------9------|-7----------^6-----|
|----6-6----6---11--------9------|-7----------^7-----|
|----6-6------6-11--------9------|-7----------^7-----|
|-4--4-4---------9--------7------|-5----------^5-----|
|--------------------------------|-------------------|
|
| Q    A chord diagramE MajorE Q    A chord diagramE MajorE  A chord diagramE MajorE   A chord diagramE MajorE  A chord diagramE MajorE A chord diagramE MajorE  A chord diagramE MajorE A chord diagramE MajorE   Q.   A chord diagramE MajorE A chord diagramE MajorE A chord diagramE MajorE  H.
|--------9-----------------------|-------------------|
|--------9----9--------10------9-|------------^6-----|
|----------------------11------9-|-7----------^7-----|
|-------------------11-------9---|-7----------^7-----|
|----------------9--------7------|-5----5-5-5-^5-----|
|-9----9-------------------------|-------------------|
|
|        ~~                                    ~~~
| Q.     Q.      Q.       Q.       H.          H.
|--------9-----------------------|------------^5-----|
|--------9------10--------9------|-7----------^6-----|
|---------------11--------9------|-7----------^7-----|
|---------------11--------9------|-7----------^7-----|
|----------------9--------7------|-5----------^5-----|
|--------------------------------|-------------------|


  A chord diagramA augmentedA               A chord diagramF#m7F#m7             A chord diagramD MajorD              A chord diagramE MajorE
  A chord diagramE MajorE  A chord diagramE MajorE A chord diagramE MajorE a A chord diagramE MajorE  A chord diagramE MajorE A chord diagramE MajorE A chord diagramE MajorE  A chord diagramE MajorE A chord diagramE MajorE a A chord diagramE MajorE A chord diagramE MajorE A chord diagramE MajorE   A chord diagramE MajorE  A chord diagramE MajorE A chord diagramE MajorE a A chord diagramE MajorE A chord diagramE MajorE A chord diagramE MajorE  Q     Q       Q
|----------0---------------0-----|--------0h2-0----0-----0---------------||
|--------0h2--0----------0h2-0---|------3-------3--0-----0---------------||
|------2--------2--------------2-|----2------------1-----1---------------||
|----2-----------------4---------|-0---------------2-----2---------------||
|-0------------------4-----------|-----------------2-----2---------------||
|-----------------2--------------|-----------------0-----0---------------||
|
| Q.       A chord diagramE MajorE  Q   Q.       A chord diagramE MajorE Q     A chord diagramE MajorE  A chord diagramE MajorE A chord diagramE MajorE   A chord diagramE MajorE A chord diagramE MajorE A chord diagramE MajorE  Q     A chord diagramE MajorE   A chord diagramE MajorE   A chord diagramE MajorE   A chord diagramE MajorE
|----------5---------------2-----|---------------------------0---0---0---||
|----------5---------------2-----|----------3---3------------0---0---0---||
|----------6---------------2-----|----2-----2---2-/9-----9---9---9---9---||
|--------------------------------|-0----3-----0---/9-----9---9---9---9---||
|--------------------------------|----------------/7-----7---7---7---7---||
|--------------------------------|---------------------------------------||
|
|                                  Gtr III
|          ~~~~~~~~~~
| Q.       Q.     H.               H.              A chord diagramE MajorE A chord diagramE MajorE   A chord diagramE MajorE   A chord diagramE MajorE   A chord diagramE MajorE   A chord diagramE MajorE
|----------5------2--------------|---------------------------------------||
|----------5------2--------------|---------------------------------------||
|-----------------2--------------|---------------------------------------||
|-----------------4--------------|---------------------------------------||
|--------------------------------|-------------------2b3-2b3-2b3-2b3-2b3-||
|--------------------------------|---------------------------------------||


 Guitar Solo
  A chord diagramA augmentedA                             A chord diagramF#m7F#m7
  A chord diagramE MajorE   A chord diagramE MajorE   A chord diagramE MajorE   a A chord diagramE MajorE   A chord diagramE MajorE     A chord diagramE MajorE     A chord diagramE MajorE     A chord diagramE MajorE A chord diagramE MajorE a A chord diagramE MajorE   A chord diagramE MajorE       A chord diagramE MajorE
|---------------0---------------------------0----------------|
|-------------0h2---0---------------------0h2---0------------|
|---------2---------------2-----------------------------2----|
|-----2---------------------------------4--------------------|
|-0-----------------------------------4----------------------|
|-------------------------------2----------------------------|
|
| Q.            Q.              Q.          Q.
|---------------5---------------------------2----------------|
|---------------5---------------------------2----------------|
|---------------6---------------------------2----------------|
|------------------------------------------------------------|
|------------------------------------------------------------|
|------------------------------------------------------------|
|
|                                                 ~~~~
| A chord diagramE MajorE   A chord diagramE MajorE   A chord diagramE MajorE     A chord diagramE MajorE   S A chord diagramE MajorE     +S  A chord diagramE MajorE     Q     S S S S    +A chord diagramE MajorE
|------------------------------------------------------------|
|------------------------------------------------------------|
|-----------------------------------------------2-4b6==(4)---|
|---------------------4b5---(4)-4b4.5p2-----2h4--------------|
|-2b3-2b3-2b3---2b3p0----------------------------------------|
|------------------------------------------------------------|


  A chord diagramD MajorD                           A chord diagramDmDm
   A chord diagramE MajorE   A chord diagramE MajorE    A chord diagramE MajorE a  A chord diagramE MajorE      A chord diagramE MajorE   A chord diagramE MajorE A chord diagramE MajorE A chord diagramE MajorE     A chord diagramE MajorE a  A chord diagramE MajorE  A chord diagramE MajorE   A chord diagramE MajorE
|-------------0h=2------0---------------0h=1--0-------|
|-----------3-------------------------3-----------3---|
|------2--------------------2---2---------------------|
|--0--------------------------0-----------------------|
|-----------------------------------------------------|
|-----------------------------------------------------|
|
|  Q.            Q.           A chord diagramE MajorE Q         +A chord diagramE MajorE  A chord diagramE MajorE   A chord diagramE MajorE
|-----------------------------------------------------|
|-------------------------------6---------(6)-5-------|
|----------------7--------------------------------7---|
|----------------7------------------------------------|
|----------------5------------------------------------|
|-----------------------------------------------------|
|
|                                                 ~~~
| +A chord diagramE MajorE   Q        +S  +S  S S A chord diagramE MajorE A chord diagramE MajorE S E.       A chord diagramE MajorE  S S A chord diagramE MajorE
|-------------------------------2---------------------|
|---------------------------------------------2-5-5b7-|
|-(4)r-4b6======(4)r(4)-2-4-2-2---4b5-----------------|
|-----------------------------------------------------|
|-----------------------------------------------------|
|-----------------------------------------------------|


  A chord diagramA augmentedA                          A chord diagramF#m7F#m7
  A chord diagramE MajorE  A chord diagramE MajorE    A chord diagramE MajorE a  A chord diagramE MajorE   A chord diagramE MajorE   A chord diagramE MajorE      A chord diagramE MajorE   A chord diagramE MajorE   A chord diagramE MajorE a A chord diagramE MajorE A chord diagramE MajorE     A chord diagramE MajorE
|--------------0--------------------------0------------|
|-----------0h=2---0--------------------0h2-0----------|
|---------2------------2--------------------------2----|
|----2--------------------------------4----------------|
|-0-------------------------------4--------------------|
|-----------------------------2------------------------|
|
| Q.           A chord diagramE MajorE   Q          Q.          A chord diagramE MajorE Q
|--------------5--------------------------2------------|
|--------------5--------------------------2------------|
|--------------6--------------------------2------------|
|------------------------------------------------------|
|------------------------------------------------------|
|------------------------------------------------------|
|
|    ~~~~
|                                           |-3-| |3|
| A chord diagramE MajorE  Q        +A chord diagramE MajorE   S S A chord diagramE MajorE     +A chord diagramE MajorE   A chord diagramE MajorE   A chord diagramE MajorE   A chord diagramE MajorE S S S A chord diagramE MajorE S
|----7b9======(7)r-5---8b10==(8)r-7b9-7---5-----5-5-5--|
|--------------------5----------------------5h7--------|
|------------------------------------------------------|
|------------------------------------------------------|
|------------------------------------------------------|
|------------------------------------------------------|


  A chord diagramD5D5                           A chord diagramE5E5
  A chord diagramE MajorE     A chord diagramE MajorE   A chord diagramE MajorE     A chord diagramE MajorE    A chord diagramE MajorE     A chord diagramE MajorE  A chord diagramE MajorE     A chord diagramE MajorE        A chord diagramE MajorE     A chord diagramE MajorE     A chord diagramE MajorE     A chord diagramE MajorE
|---------------------------------------------------------------------|
|---------------------------------------------------------------------|
|-2-----2---2-----2----2-----2--4-----4--------4-----4-----4-----4----|
|-0-----0---0-----0----0-----0--2-----2--------2-----2-----2-----2----|
|---------------------------------------------------------------------|
|---------------------------------------------------------------------|
|
| Q.              Q.            A chord diagramE MajorE     A chord diagramE MajorE        A chord diagramE MajorE     A chord diagramE MajorE     A chord diagramE MajorE     A chord diagramE MajorE
|-------------------------------------4--------------4-----------4----|
|-------------------------------------0--------------0-----------0----|
|-----------------7------------/4-------------/4----------/4----------|
|-----------------7---------------------------------------------------|
|-----------------5---------------------------------------------------|
|---------------------------------------------------------------------|
|
| |-3-| |3| |-3-| |3-| |-3-|          |--3--|
| S S S A chord diagramE MajorE S S S S A chord diagramE MajorE  S S S S A chord diagramE MajorE  S  S  S  S  S  S  S  S  S  S  S  S  S
|-----5-5-5-----5-5--5-----5-5S10----10-------10----10----10----10----|
|-5h7-------5h7--------5h7-----10----10-------------------------------|
|---------------------------------10----10-10----10----10----10----10-|
|---------------------------------------------------------------------|
|---------------------------------------------------------------------|
|---------------------------------------------------------------------|


     A chord diagramA augmentedA                                 A chord diagramF#m7F#m7
      A chord diagramE MajorE  A chord diagramE MajorE     A chord diagramE MajorE        a  A chord diagramE MajorE    A chord diagramE MajorE   A chord diagramE MajorE   A chord diagramE MajorE           A chord diagramE MajorE   A chord diagramE MajorE a  A chord diagramE MajorE     A chord diagramE MajorE       A chord diagramE MajorE
|--------------------------0---------------------------------0----------------|
|-----------------------0h=2----0-------------------------0h=2-----0----------|
|--------------2--------------------2--------------------------------------2--|
|--------2----------------------------------------------4---------------------|
|-----0---------------------------------------------4-------------------------|
|---------------------------------------2-------------------------------------|
|
|     Q       +A chord diagramE MajorE           A chord diagramE MajorE    Q       Q.                   A chord diagramE MajorE     Q
|--------------------------5---------------------------------2----------------|
|--------------------------5---------------------------------2----------------|
|-----4-------(4)b6------------------------------------------2----------------|
|-----------------------------------------------------------------------------|
|-----------------------------------------------------------------------------|
|-----------------------------------------------------------------------------|
|
|                                           ~~~~~~~~~~~~              ~~~~~
|  a  A chord diagramE MajorE  S  S  S     S  a  Q       +A chord diagramE MajorE   S   S      +Q        S  S  S  E.
|-10s17-17----17-------17h20b22r==(20)-14-------------------14----------------|
|-10s17----17-------17---------------------17b19==(17)r--------17-14----------|
|--------------------------------------------------------------------16b18----|
|-----------------------------------------------------------------------------|
|-----------------------------------------------------------------------------|
|-----------------------------------------------------------------------------|


  A chord diagramD MajorD                                              A chord diagramDmDm
  A chord diagramE MajorE   A chord diagramE MajorE     A chord diagramE MajorE    a  A chord diagramE MajorE             A chord diagramE MajorE     A chord diagramE MajorE          A chord diagramE MajorE    A chord diagramE MajorE      A chord diagramE MajorE    a  A chord diagramE MajorE    A chord diagramE MajorE A chord diagramE MajorE
|----------------0h=2-------------0---------------------------------0h=1----0---|
|-----------3--------------------------------------------------3--------------3-|
|-----2---------------------------------2---------------2-----------------------|
|-0------------------------------------------------0----------------------------|
|-------------------------------------------------------------------------------|
|-------------------------------------------------------------------------------|
|
| Q.                A chord diagramE MajorE             Q                A chord diagramE MajorE    Q              Q.
|-------------------------------------------------------------------------------|
|-------------------------------------------------------6--------------6--------|
|-------------------7-----------------------------------7--------------7--------|
|-------------------7-----------------------------------7--------------7--------|
|-------------------5-----------------------------------------------------------|
|-------------------------------------------------------------------------------|
|
|                                                  ~~~~~               ~~~~~
| A chord diagramE MajorE   S  S  S  S    A chord diagramE MajorE     a      +S   A chord diagramE MajorE    S      +A chord diagramE MajorE   +S   S  S  S    Q.
|-------------------------------------------------------------------------------|
|-----------------------------------------17b19==(17)r(17)p14----14-------------|
|----------14-16---14b16-14pb16r(14)--------------------------16------16b18-----|
|----14h16---------------------------16-----------------------------------------|
|-------------------------------------------------------------------------------|
|-------------------------------------------------------------------------------|


  A chord diagramA augmentedA                                                    A chord diagramF#m7F#m7
  A chord diagramE MajorE   A chord diagramE MajorE        A chord diagramE MajorE       a  A chord diagramE MajorE        A chord diagramE MajorE        A chord diagramE MajorE            A chord diagramE MajorE  A chord diagramE MajorE A chord diagramE MajorE a  A chord diagramE MajorE    A chord diagramE MajorE A chord diagramE MajorE
|-------------------------0----------------------------------------0--------|
|----------------------0h=2--------0----------------------------0h=2----0---|
|--------------2----------------------------2-----------------------------2-|
|-----2-------------------------------------------------------4-------------|
|-0---------------------------------------------------------4---------------|
|--------------------------------------------------------2------------------|
|
| Q.                      A chord diagramE MajorE        Q                     Q.        A chord diagramE MajorE    Q
|-------------------------5----------------------------------------2--------|
|-------------------------5----------------------------------------2--------|
|-------------------------6----------------------------------------2--------|
|---------------------------------------------------------------------------|
|---------------------------------------------------------------------------|
|---------------------------------------------------------------------------|
|
|     |--3--|  |--3--|    |--3--|  |--3--|  |--3--|
| A chord diagramE MajorE   S  S  S  S  S  S    S  S  S  S  S  S  S  S  S     +Q.        Q.
|----17----17----17------17----17-17----17----17-21b24-(21)-------21b24-----|
|-------17----17----17------17-------17----17-------------------------------|
|---------------------------------------------------------------------------|
|---------------------------------------------------------------------------|
|---------------------------------------------------------------------------|
|---------------------------------------------------------------------------|


    A chord diagramD MajorD                                      A chord diagramE MajorE
  a  A chord diagramE MajorE          E. S A chord diagramE MajorE  A chord diagramE MajorE        S     S a  A chord diagramE MajorE        A chord diagramE MajorE        A chord diagramE MajorE        A chord diagramE MajorE        A chord diagramE MajorE        A chord diagramE MajorE
|---------------------------------------------------------------------------------------------||
|---------------7--7----7--------7-----7-------------9--------------------------9-------------||
|---------------7--7----7--------7-----7-------------9--------9--------9--------9--------9----||
|---------------7--7----7--------7-----7-------------9--------9--------9--------9--------9----||
|-7s=9---------------9-------------------9s11----------------11-------11----------------11----||
|---------------------------------------------------------------------------------------------||
|
|    Q.              Q           A chord diagramE MajorE          A chord diagramE MajorE        A chord diagramE MajorE        A chord diagramE MajorE        A chord diagramE MajorE        A chord diagramE MajorE        A chord diagramE MajorE
|---------------------------------------------------------------------------------------------||
|---------------------------------------------------------------------------------------------||
|--------------------7-----------7----------9--------9--------9--------9--------9--------9----||
|--------------------7-----------7----------9--------9--------9--------9--------9--------9----||
|--------------------5-----------5----------7--------7--------7--------7--------7--------7----||
|-------------------------------------------0--------0--------0--------0--------0--------0----||
|
|                                                                                        ~~~~~
|                       |--3--|
|    S     +S   Q    A chord diagramE MajorE  A chord diagramE MajorE     S  S     S    S     S  S     S  S     S  S     S  S     S  A chord diagramE MajorE
|---21b24r(21)-17-----------------------------------------------------------------------------||
|----------------------------17-------17---------17-------17-------17-------17-------17-------||
|----------------------19b21----19b21------19b21----19b21----19b21----19b21----19b21----19b21-||
|---------------------------------------------------------------------------------------------||
|---------------------------------------------------------------------------------------------||
|---------------------------------------------------------------------------------------------||


 Bridge
  A chord diagramF# minorF#m                        A chord diagramE MajorE                    A chord diagramD MajorD
   Q     A chord diagramE MajorE    A chord diagramE MajorE      A chord diagramE MajorE  A chord diagramE MajorE      A chord diagramE MajorE  A chord diagramE MajorE A chord diagramE MajorE   A chord diagramE MajorE  A chord diagramE MajorE  A chord diagramE MajorE     A chord diagramE MajorE      A chord diagramE MajorE A chord diagramE MajorE A chord diagramE MajorE S S S S   A chord diagramE MajorE   A chord diagramE MajorE A chord diagramE MajorE A chord diagramE MajorE  A chord diagramE MajorE A chord diagramE MajorE
|-----------------------------------------------|-------------------------------------------|
|-10----10---10-----10-10------9--9-9---9--9--9s|===7------7-7-7-7-7-7-7---7---7-7-7--7-7---|
|-11----11---11-----11-11------9--9-9---9--9--9s|===7------7-7-7-7-7-7-7---7---7-7-7--7-7---|
|-11----11---11-----11-11------9--9-9---9--9--9s|===7------7-7-7-7-7-7-7---7---7-7-7--7-7---|
|--9-----9----9------9--9------7--7-7---7--7--7s|===5------5-5-5-5-5-5-5---5---5-5-5--5-5---|
|-----------------------------------------------|-------------------------------------------|
|
|  Q    +A chord diagramE MajorE    Q.               H.                   W
|-----------------------------------------------|-------------------------------------------|
|-----------------------------------------------|-------------------------------------------|
|-11---(11)\------------------------------------|-------------------------------------------|
|-11---(11)\------------------------------------|-------------------------------------------|
|--9----(9)\------------------------------------|-------------------------------------------|
|-----------------------------------------------|-------------------------------------------|
|
|                              ~~~~~~~~~~~~
|  Q.         Q.           a  +Q.      +Q     A chord diagramE MajorE    +H.                    +Q.      Q.
|-----------------------------------------------|-------------------------------------------|
|------------17b19========17r(17)-----(17)---14-|-(14)b15================(14)r--------------|
|-----------------------------------------------|-------------------------------------------|
|-----------------------------------------------|-------------------------------------------|
|-----------------------------------------------|-------------------------------------------|
|-----------------------------------------------|-------------------------------------------|


  A chord diagramF# minorF#m                       A chord diagramE MajorE
   A chord diagramE MajorE   A chord diagramE MajorE  A chord diagramE MajorE  A chord diagramE MajorE      A chord diagramE MajorE  A chord diagramE MajorE      A chord diagramE MajorE             A chord diagramE MajorE             A chord diagramE MajorE           A chord diagramE MajorE A chord diagramE MajorE  A chord diagramE MajorE
|----------------------------------------------------------------------------|
|-10--10-10-10-----10-10------9-------------9-------------9-----------9-9--9-|
|-11--11-11-11-----11-11------9-------------9-------------9-----------9-9--9-|
|-11--11-11-11-----11-11------9-------------9-------------9-----------9-9--9-|
|--9---9--9--9------9--9------7-------------7-------------7-----------7-7--7-|
|----------------------------------------------------------------------------|
|
| Gtr VI
|  TP
|  W.
|----------------------------------------------------------------------------|
|-10-------------------------------------------------------------------------|
|----------------------------------------------------------------------------|
|----------------------------------------------------------------------------|
|----------------------------------------------------------------------------|
|----------------------------------------------------------------------------|
|
|  Q.        Q.           a  +S       +S   +S       +S   +S      +S   Q    A chord diagramE MajorE
|----------------------------------------------------------------------------|
|-----------17b19========17r(17)b19==(17)r(17)b19==(17)r(17)b19-(17)-17---14-|
|----------------------------------------------------------------------------|
|----------------------------------------------------------------------------|
|----------------------------------------------------------------------------|
|----------------------------------------------------------------------------|


                       Chorus
  A chord diagramD MajorD                     A chord diagramA augmentedA                 A chord diagramF#m7F#m7
 6/8                   12/8
  Gtrs I, II            Gtr I
    A chord diagramE MajorE     A chord diagramE MajorE A chord diagramE MajorE A chord diagramE MajorE  A chord diagramE MajorE A chord diagramE MajorE    A chord diagramE MajorE  A chord diagramE MajorE A chord diagramE MajorE a A chord diagramE MajorE A chord diagramE MajorE  A chord diagramE MajorE   A chord diagramE MajorE  A chord diagramE MajorE A chord diagramE MajorE a A chord diagramE MajorE  A chord diagramE MajorE A chord diagramE MajorE
|--------------------||----------0-----------------0------|
|---7-----7-7-7--7-7-||--------0h2-0-------------0h2--0---|
|---7-----7-7-7--7-7-||------2--------2-----------------2-|
|---7-----7-7-7--7-7-||----2-------------------4----------|
|---5-----5-5-5--5-5-||-0--------------------4------------|
|--------------------||-------------------2---------------|
|
|                       Gtr II
|  +Q.        Q.        Q.       Q   +A chord diagramE MajorE   Q.       Q.
|--------------------||----------5---(5)\----------2------|
|-(10)---------------||----------5---(5)\----------2------|
|--------------------||-2--------------------------2------|
|--------------------||-2---------------------------------|
|--------------------||-0---------------------------------|
|--------------------||-----------------------------------|
|
|                       Gtr V
|                                ~                 ~~
|  +H.                  Q.       Q   +A chord diagramE MajorE   Q.       Q.
|--------------------||----------5---(5)\----------2------|
|-(14)b15------------||----------5---(5)\----------2------|
|--------------------||----------6---(6)\----------2------|
|--------------------||-----------------------------------|
|--------------------||-----------------------------------|
|--------------------||-----------------------------------|


  A chord diagramD MajorD               A chord diagramDmDm                    A chord diagramA augmentedA               A chord diagramF#m7F#m7
  A chord diagramE MajorE  A chord diagramE MajorE A chord diagramE MajorE a A chord diagramE MajorE  A chord diagramE MajorE A chord diagramE MajorE A chord diagramE MajorE  A chord diagramE MajorE A chord diagramE MajorE a A chord diagramE MajorE    A chord diagramE MajorE   A chord diagramE MajorE   A chord diagramE MajorE  A chord diagramE MajorE A chord diagramE MajorE a A chord diagramE MajorE  A chord diagramE MajorE A chord diagramE MajorE A chord diagramE MajorE  A chord diagramE MajorE A chord diagramE MajorE a A chord diagramE MajorE  A chord diagramE MajorE A chord diagramE MajorE
|--------0h2--0----------0h1----0-----|----------0---------------0------|
|------3---------------3------------3-|--------0h2--0----------0h2--0---|
|----2----------2----2----------------|------2--------2---------------2-|
|-0---------------0-------------------|----2-----------------4----------|
|-------------------------------------|-0------------------4------------|
|-------------------------------------|-----------------2---------------|
|
| Q.       Q.     Q.     a A chord diagramE MajorE  a A chord diagramE MajorE a A chord diagramE MajorE   Q.       Q.     Q.       Q.
|--------------------------5----5---5-|----------5---------------2------|
|------------------------5h6--5h6-5h6-|----------5---------------2------|
|----------7---------------7----7---7-|----------6---------------2------|
|----------7--------------------------|---------------------------------|
|----------5--------------------------|---------------------------------|
|-------------------------------------|---------------------------------|
|
|          ~~~~~~~~~~~~~~~~~~~                   ~~              ~~
| Q.       Q.     Q.       Q.           Q.       Q.     Q.       Q.
|-----------------5--------5----------|----------5---------------2------|
|----------7------6--------6----------|----------5---------------2------|
|----------7------7--------7----------|----------6---------------2------|
|----------7--------------------------|---------------------------------|
|-------------------------------------|---------------------------------|
|-------------------------------------|---------------------------------|


  A chord diagramD MajorD                     A chord diagramE MajorE
  A chord diagramE MajorE  S S S S A chord diagramE MajorE  S S S S A chord diagramE MajorE   S   S S S   A chord diagramE MajorE  S S  S S
|----------------------------------------------------|
|-7--7-7-7-7-7--7-7-7-7S9---9---9-9-9---9--9-9--9-9--|
|-7--7-7-7-7-7--7-7-7-7S9---9---9-9-9---9--9-9--9-9--|
|-7--7-7-7-7-7--7-7-7-7S9---9---9-9-9---9--9-9--9-9--|
|-5--5-5-5-5-5--5-5-5-5S7---7---7-7-7---7--7-7--7-7--|
|----------------------------------------------------|
|
| Q.         Q.         A chord diagramE MajorE   A chord diagramE MajorE     A chord diagramE MajorE     A chord diagramE MajorE  A chord diagramE MajorE    A chord diagramE MajorE
|---------------------------------0------------12----|
|---------------------------------0-------12---------|
|------------7----------9---9-----9---/13------------|
|------------7----------9---9-----9------------------|
|------------5----------7---7-----7------------------|
|----------------------------------------------------|
|
|            ~~
| Q.         Q.         A chord diagramE MajorE   A chord diagramE MajorE     A chord diagramE MajorE     A chord diagramE MajorE  A chord diagramE MajorE    A chord diagramE MajorE
|----------------------------------------------------|
|----------------------------------------------------|
|------------7---------------------------------------|
|------------7---------------------------------------|
|------------5----------2b3-2b3---2-----2--2----0----|
|----------------------------------------------------|


  A chord diagramA augmentedA                   A chord diagramF#m7F#m7                  A chord diagramD MajorD                A chord diagramDmDm
  A chord diagramE MajorE  A chord diagramE MajorE A chord diagramE MajorE a  A chord diagramE MajorE A chord diagramE MajorE   A chord diagramE MajorE   A chord diagramE MajorE  A chord diagramE MajorE A chord diagramE MajorE a  A chord diagramE MajorE A chord diagramE MajorE   A chord diagramE MajorE     A chord diagramE MajorE  A chord diagramE MajorE A chord diagramE MajorE a  A chord diagramE MajorE  A chord diagramE MajorE A chord diagramE MajorE   A chord diagramE MajorE  A chord diagramE MajorE A chord diagramE MajorE a A chord diagramE MajorE A chord diagramE MajorE A chord diagramE MajorE
|-----------0-------------------0---------|--------0h=2--0------------0h1-0---|
|--------0h=2-0--------------0h=2-0-------|------3------------------3-------3-|
|------2----------2-------------------2---|----2-----------2------2-----------|
|----2---------------------4--------------|-0------------------0--------------|
|-0----------------------4----------------|-----------------------------------|
|---------------------2-------------------|-----------------------------------|
|
| Q.        Q    +A chord diagramE MajorE   Q.        Q     A chord diagramE MajorE     Q.        Q.       Q.     a A chord diagramE MajorE A chord diagramE MajorE A chord diagramE MajorE
|-----------5----(5)\-----------2---------|-----------------------------5-----|
|-----------5----(5)\-----------2-----2---|---------------------------5h6-5---|
|-----------6----(6)\-----------2---------|-----------7---------------------7-|
|-----------------------------------------|-----------7-----------------------|
|-----------------------------------------|-----------5-----------------------|
|-----------------------------------------|-----------------------------------|
|
|           ~~                  ~~                    ~~~~~~~~~~~~
| Q.        Q    +A chord diagramE MajorE   Q.        Q    +A chord diagramE MajorE     Q.        Q.       H.
|----------17---(17)\----------14---(14)\-|----------10------^10--------------|
|----------17---(17)\----------14---(14)\-|----------10------^10--------------|
|----------18---(18)\----------14---(14)\-|----------10------^10--------------|
|-----------------------------------------|----------12------^12--------------|
|-0---------------------------------------|-----------------------------------|
|-----------------------------------------|-----------------------------------|


  A chord diagramA augmentedA                   A chord diagramF#m7F#m7
  A chord diagramE MajorE  A chord diagramE MajorE A chord diagramE MajorE a  A chord diagramE MajorE A chord diagramE MajorE   A chord diagramE MajorE   A chord diagramE MajorE  A chord diagramE MajorE A chord diagramE MajorE a  A chord diagramE MajorE A chord diagramE MajorE   A chord diagramE MajorE
|-----------0-------------------0-----------|
|--------0h=2-0--------------0h=2-0---------|
|------2----------2-------------------2-----|
|----2---------------------4----------------|
|-0----------------------4------------------|
|---------------------2---------------------|
|
| Q.        Q    +A chord diagramE MajorE   Q.        Q    +A chord diagramE MajorE
|----------17---(17)\----------14---(14)\---|
|----------17---(17)\----------14---(14)\---|
|----------18---(18)\----------14---(14)\---|
|-------------------------------------------|
|-------------------------------------------|
|-------------------------------------------|
|
|                               ~~
| Q.        Q    +A chord diagramE MajorE   Q.        Q    +A chord diagramE MajorE
|----------17---(17)\----------14---(14)\---|
|----------17---(17)\----------14---(14)\---|
|----------18---(18)\----------14---(14)\---|
|-------------------------------------------|
|-------------------------------------------|
|-------------------------------------------|


  A chord diagramE MajorE  A chord diagramE MajorE S S A chord diagramE MajorE  A chord diagramE MajorE S S   A chord diagramE MajorE  A chord diagramE MajorE     A chord diagramE MajorE     A chord diagramE MajorE          S  S  S S
|---------------------------------------------------------||
|----7-7-7----7-7-7---------------------------------------||
|----7-7-7----7-7-7------9-----9----------------9--9--9-9-||
|----7-7-7----7-7-7------9-----9----------------9--9--9-9-||
|-5--5-5-5-5--5-5-5-/11-------------11--------------------||
|---------------------------------------------------------||
|
| Q.       Q.         A chord diagramE MajorE  S  S  S  S  S     S    S  S  A chord diagramE MajorE
|-----------------------12----14----14---------------16---||
|---------------------------------------------------------||
|----------7--------/13----14----14-------14---14s16------||
|----------7----------------------------------------------||
|----------5----------------------------------------------||
|---------------------------------------------------------||
|
|                                    |---3---|
| Q.       Q.         A chord diagramE MajorE  S  S  A chord diagramE MajorE     S  S    S  A chord diagramE MajorE     A chord diagramE MajorE
|---------------------------------------------------------||
|---------------------------------------------------------||
|----------7----------------------------------------------||
|----------7-------------9-----9-----9h11p===9--------9---||
|----------5--------/11----11------------------11---------||
|---------------------------------------------------------||


 Outro
  A chord diagramA augmentedA              A chord diagramF#m7F#m7             A chord diagramD MajorD              A chord diagramDmDm
  A chord diagramE MajorE  A chord diagramE MajorE A chord diagramE MajorE a A chord diagramE MajorE A chord diagramE MajorE A chord diagramE MajorE A chord diagramE MajorE  A chord diagramE MajorE A chord diagramE MajorE a A chord diagramE MajorE A chord diagramE MajorE A chord diagramE MajorE   A chord diagramE MajorE  A chord diagramE MajorE A chord diagramE MajorE a A chord diagramE MajorE A chord diagramE MajorE A chord diagramE MajorE   A chord diagramE MajorE  A chord diagramE MajorE A chord diagramE MajorE  a  A chord diagramE MajorE  A chord diagramE MajorE  A chord diagramE MajorE
|----------0--------------0-----|--------0h2-0-------------0h=1--0--------|
|--------0h2-0----------0h2-0---|------3----------------3-----------3-----|
|------2-------2--------------2-|----2---------2------2-------------------|
|----2----------------4---------|-0----------------0----------------------|
|-0-----------------4-----------|-----------------------------------------|
|----------------2--------------|-----------------------------------------|
|
| Q.       Q   A chord diagramE MajorE Q.       Q   A chord diagramE MajorE   Q.       Q   A chord diagramE MajorE   A chord diagramE MajorE  Q    a  A chord diagramE MajorE  A chord diagramE MajorE  A chord diagramE MajorE
|----------5---5----------2---2-|-----------------------------------------|
|----------5---5----------2---2-|--------------------------5h=6--5--------|
|----------6---6----------2---2-|----------7---7------7-------------7-----|
|-------------------------------|----------7---7------7-------------------|
|-------------------------------|-5----------------5----------------------|
|-------------------------------|-----------------------------------------|
|
|                                 Gtr III
| W                               H.               A chord diagramE MajorE  Q    a  A chord diagramE MajorE  A chord diagramE MajorE  S  S
|-------------------------------|--------------------17---------19--------|
|-------------------------------|-----------------------------------------|
|-------------------------------|----------------/17------17s19----19s21--|
|-------------------------------|-----------------------------------------|
|-------------------------------|-----------------------------------------|
|-------------------------------|-----------------------------------------|


   A chord diagramE MajorE  A chord diagramE MajorE A chord diagramE MajorE a  A chord diagramE MajorE   A chord diagramE MajorE  A chord diagramE MajorE          A chord diagramE MajorE  A chord diagramE MajorE   A chord diagramE MajorE  a   A chord diagramE MajorE   A chord diagramE MajorE      A chord diagramE MajorE
|------------0-------------------------------0-------------|
|---------0h=2---0-----------------------0h==2---0---------|
|-------2-----------2-----------------------------------2--|
|-----2-------------------------------4--------------------|
|--0------------------------------4------------------------|
|------------------------------2---------------------------|
|
|  Q.        Q.                Q.            Q          A chord diagramE MajorE
|------------5-------------------------------2----------2--|
|------------5-------------------------------2----------2--|
|------------6-------------------------------2----------2--|
|----------------------------------------------------------|
|----------------------------------------------------------|
|----------------------------------------------------------|
|
|  ~~~
|  Q.        A chord diagramE MajorE   A chord diagramE MajorE  S  S      +Q     +A chord diagramE MajorE     +A chord diagramE MajorE   A chord diagramE MajorE     +A chord diagramE MajorE
|-21-------------------------------------------------------|
|----------------------------------------------------------|
|-----------18--19-21-21b23==(21)r==(21)---(21)-19b21-(19)-|
|----------------------------------------------------------|
|----------------------------------------------------------|
|----------------------------------------------------------|


   A chord diagramE MajorE    S S S S A chord diagramE MajorE  S S S S a  A chord diagramE MajorE         A chord diagramE MajorE   A chord diagramE MajorE        A chord diagramE MajorE        A chord diagramE MajorE     A chord diagramE MajorE
|-----------------------------------------------------------------------|
|-------7-7-7-7----7-7-7-7--------------9------------

Other versions of Crazy

CrazyChords

Almost there ...

Sign in to get your own page with links to favourite songs and more. You are just one click away...

Login with Facebook Login with Google