Log in

One click and you are in

Login with Facebook Login with Google

Why sign up and log in

Guitar Tabs Explorer
Aerosmith tabs for Come together

Guitar tabs

intro
e------------------------------------------------
b------------------------------------------------
g-11-11---------10-------------------------------
d-12-12---------10--12---------------------------
a-12-11--10--12-----12---------------------------
e-10-10------------------------------------------

1st riff
e------------------------------------------------
b------------------------------------------------
g------------------------------------------------
d------------------------------------------------
a-10-10-12-12--(play 8 times)--7-7-9-9--(4 times)
e-10-10-10-10------------------7-7-7-7-----------

then back to intro
on 2nd and 3rd riff play this before going back to intro

e------------------------------------------------
b------------------------------------------------
g------------------------------------------------
d------------------------------------------------
a--10-10-12-12--(2 times)--7-7-7-7--9------------
e--10-10-10-10-------------7-7-7-7--9------------
then go back to intro

couldnt figure out solo  (entered by c.t.h.)

Other versions of Come Together

Come togetherChords

Almost there ...

Sign in to get your own page with links to favourite songs and more. You are just one click away...

Login with Facebook Login with Google