Log in

One click and you are in

Login with Facebook Login with Google

Why sign up and log in

Guitar Tabs Explorer
Adema bass tabs for Giving in

Bass tabs with lyrics

ARTIST/BAND:Adema
ALBUM:ADEMA
SONG:"Giving in"                                             Adema's bassest,Dave DeRoo uses a 5 string tuned down to A,D,G,C,F. This song can however be played on a tuned down 4 string and sound almost the same.Using a 5 string is better though.

come in after guitar.(0:12)

F-------------------------------------------------
C-------------------------------------------------
G-------------------------------------------------
D-------------------------------------------------
A-12---0---0--0-0-0-------------------------------

real intro. (0:19)REPEAT 3x

F-------------------------------------------------
C-------------------------------------------------
G-------------------------------------------------
D---------------------------------------09-8-7-65-
A-5-5---3-3---5-5---5-5---5-5---3-3-5-5-----------


VERSE 1 is the intro


Chorus (1:09)

F-------------------------------------------------
C-------------------------------------------------
G-------------------------------------------------
D-------------------------------------------------
A-5-5--1--0--0-0-0-5-5--1--0--0-0-0---------------

BACK TO VERSE 1 (1:34)

TO CHORUS (2:12)

TO GUITAR SOLO
DURING SOLO PLAY VERSE 1 AGAIN (2:37)

(BRIDGE)
AFTER SOLO THATS WERE BASS COMES IN (2:50) 3X
F-------------------------------------------------
C-------------------------------------------------
G-------------------------------------------------
D-7-----------------------------------------------
A------5-----3-----1------------------------------
(BRIDGE)(3:09)
F-------------------------------------------------
C-------------------------------------------------
G-------------------------------------------------
D-7-7-7-7-8-8-8-8-9-9-9-9-10-10-10-10-------------
A-------------------------------------------------

HEAVY PART (3:15)REPEAT 3X

F-------------------------------------------------
C-------------------------------------------------
G-------------------------------------------------
D-------------------------------------------------
A-5-5---5-5---5-5----2-33-44----------------------


CHORUS AGAIN
THEN VERSE ONE


WHOLE SONG:
      SUB INTRO
      INTRO
      VERSE 1
      CHORUS
      VERSE 1
      CHORUS
      GUITAR SOLO (BRIDGE)
      BASS PART  (BRIDGE)
      HEAVY PART (BRIDGE)
      CHORUS
      VERSE 1

Thats the song, a few parts may be wrong but I tried.

Almost there ...

Sign in to get your own page with links to favourite songs and more. You are just one click away...

Login with Facebook Login with Google