Guitar Tabs Explorer
Adele bass tabs for Make you feel my love

Make You Feel My Love bass tab


Be the first to rate

Make You Feel My Love bass tab by Adele

Bass tabs with lyrics

Print

ADELE 	MAKE YOU FEEL MY LOVE (5-snare)

Intro:	  1 2 3 4 1 2 3 4ren 1 2 3 4ren 1 2 3 4ren
G|-------|----------|----------|----------|
D|8------|7---------|6--------8|----------|
A|-------|---------8|----------|6---------|
E|-------|----------|----------|---------6|
B|-------|----------|----------|----------|
  1 2 3 4ren 1 2 3 4ren 1 2ren 3 4 1 2 3 4ren
G|----------|----------|----------|----------|
D|----------|8--------8|----------|8---------|
A|6--------8|----------|----------|---------8|
E|----------|----------|8---(8)---|----------|
B|----------|----------|-------6--|----------|
  1 n 2 n 3 n 4 n 1 n 2 n 3 n 4ren 1 n 2 n 3 n 4ren 1 n 2 n 3 n 4ren
G|---------------|----------------|----------------|----------------|
D|8--------------|7---------------|6--------------8|----------------|
A|---------------|---------------8|----------------|6---------------|
E|---------------|----------------|----------------|---------------6|
B|---------------|----------------|----------------|----------------|
When the rain is blowing in your face, and the whole world is on your case
  1 n 2 n 3 n 4ren 1 n 2 n 3 n 4ren 1 n 2 n 3 n 4 n 1 n 2 n 3 n 4ren
G|----------------|----------------|---------------|----------------|
D|----------------|8--------------8|---------------|8-----------8---|
A|6--------------8|----------------|---------------|---------------8|
E|----------------|----------------|8--------------|----------------|
B|----------------|----------------|--------6------|----------------|
I could offer you a warm embrace, to make you feel my love
  1 n 2 n 3 n 4 n 1 n 2 n 3 n 4ren 1 n 2 n 3 n 4ren 1 n 2 n 3 n 4ren
G|---------------|----------------|----------------|----------------|
D|8--------------|7---------------|6--------------8|---------------8|
A|---------------|8--------------8|----------------|6---------------|
E|---------------|----------------|----------------|----------------|
B|---------------|----------------|----------------|----------------|
When evening shadows and the stars appear, and there is no one there to dry your tears
  1 n 2 n 3 n 4ren 1 n 2 n 3 n 4ren 1 n 2 n 3 n 4 n 1 n 2 n 3 n 4 n
G|----------------|----------------|---------------|---------------|
D|----------------|8--------------8|---------------|8-----------8--|
A|6---------------|----------------|---------------|---------------|
E|----------------|----------------|8--------------|--------------6|
B|----------------|----------------|--------6------|---------------|
I could hold you for a million years, to make you feel my love Chorus 1:
  1 n 2 n 3 n 4ren 1 n 2 n 3 n 4ren 1 n 2ren 3 n 4ren 1 n 2 n 3 n 4ren
G|----------------|----------------|-----------------|-----------------|
D|----------------|----------------|-----------------|8-------------8--|
A|6---------------|8---------------|9--------10-----8|---------------8p|
E|---------------8|--------------10|-------11--------|-----------------|
B|----------------|----------------|-----------------|-----------------|
I know you haven't made your mind up yet, but I would never do you wrong
  1 n 2 n 3 n 4ren 1 n 2 n 3 n 4ren 1 n 2 n 3 n 4 n 1 n 2 n 3 n 4 n
G|----------------|----------------|---------------|---------------|
D|----------------|8---------------|---------------|---------------|
A|6--------------8|---------------8|---------------|---------------|
E|----------------|----------------|8--------------|---------------|
B|----------------|----------------|---------------|6--------------|
I've known it from the moment that we met, No doubt in my mind where you belong
  1 n 2 n 3 n 4 n 1 n 2 n 3 n 4ren 1 n 2 n 3 n 4ren 1 n 2 n 3ren 4ren
G|---------------|----------------|----------------|-------------8---|
D|8--------------|7---------------|6--------------8|-----------8----8|
A|---------------|---------------8|----------------|6----------------|
E|---------------|----------------|----------------|-----------------|
B|---------------|----------------|----------------|-----------------|
I'd go hungry, I'd go black and blue, I'd go crawling down the avenue
  1 n 2 n 3 n 4ren 1 n 2 n 3 n 4ren 1 n 2 n 3 n 4 n 1 n 2 n 3 n 4ren
G|----------------|----------------|---------------|----------------|
D|----------------|8--------------8|---------------|8---------------|
A|6--------------8|----------------|---------------|---------------8|
E|----------------|----------------|8--------------|----------------|
B|----------------|----------------|--------6------|----------------|
No, there's nothing that I wouldn't do, to make you feel my love

Interlude::	  1 2 3 4 1 2 3 4ren 1 2 3 4ren 1 2 3 4ren
G|-------|----------|----------|----------|
D|8------|7---------|6--------8|----------|
A|-------|---------8|----------|6---------|
E|-------|----------|----------|---------6|
B|-------|----------|----------|----------|
  1 2 3 4ren 1 2 3 4ren 1 2ren 3 4 1 2 3 4ren
G|----------|----------|----------|----------|
D|----------|8--------8|----------|8--------8|
A|6--------8|----------|----------|--------8-|
E|----------|----------|8---------|----------|
B|----------|----------|-------6--|----------|

  1 n 2 n 3 n 4ren 1 n 2 n 3 n 4 n 1 n 2 n 3 n 4 n 1 n 2 n 3 n 4 n
G|----------------|---------------|---------------|---------------|
D|----------------|8--------------|---------------|8--------------|
A|6--------------8|---------------|5-------6------|---------------|
E|----------------|---------------|---------------|---------------|
B|----------------|---------------|---------------|---------------|
The storms are raging on the rollin' sea, and on the highway of regret
  1 n 2 n 3 n 4ren 1 n 2 n 3 n 4 n 1 n 2 n 3 n 4 n 1 n 2 n 3 n 4 n
G|----------------|---------------|---------------|---------------|
D|----------------|8--------------|---------------|---------------|
A|6--------------8|---------------|---------------|8--------------|
E|----------------|---------------|8--------------|---------------|
B|----------------|---------------|---------------|---------------|
The winds of change are blowing wild and free, you ain't seen nothing like me yet
  1 n 2 n 3 n 4 n 1 n 2 n 3 n 4ren 1 n 2 n 3 n 4ren 1 n 2 n 3ren 4ren
G|---------------|----------------|----------------|-----------------|
D|8--------------|7---------------|6--------------8|----------------8|
A|---------------|---------------8|----------------|6----------------|
E|---------------|----------------|----------------|-----------------|
B|---------------|----------------|----------------|-----------------|
I could make you happy, make your dreams come true, nothing that I wouldn't do
  1 2 3 4ren 1 2 3 4ren 1 2 3 4 1 2 3 4ren 1 2 3 4 1 2 3 4
G|----------|----------|-------|----------|-------|-------||
D|----------|8--------8|-------|8--------8|-------|8------||
A|6--------8|----------|-------|----------|-------|-------||
E|----------|----------|8------|----------|8------|-------||
B|----------|----------|----6--|----------|----6--|-------||
Go to the ends of the earth for you,
                        To make you feel my love
                                          To make you feel my love

Other versions of Make You Feel My Love

Make you feel my love (Ver. 2)Bass tabs

Comment this song and these bass tabs

Do you have corrections, comments on the bass tabs, thoughts about the song or a message to the author? Write them below.