Log in

One click and you are in

Login with Facebook Login with Google

Why sign up and log in

Guitar Tabs Explorer
Adele bass tabs for Make you feel my love (Ver. 2)

Bass tabs

Tuning: Standard (E A D G)

Key: Bb

Difficulty: Novice
Intro:
G|----|----|----|----|----|----|----|----|
D|8---|7---|6---|----|----|----|----|8---|
A|----|----|----|6---|6---|----|--8-|----|
E|----|----|----|----|----|6---|8---|----|


VERSE 1:
G|----|----|----|----|----|----|----|----|
D|8---|7---|6---|----|----|----|----|8---|
A|----|----|----|6---|6---|----|--8-|----|
E|----|----|----|----|----|6---|8---|----|


VERSE 2:
G|----|----|----|----|----|----|----|----|
D|8---|7---|6---|----|----|----|----|8---|
A|----|----|----|6---|6---|----|--8-|----|
E|----|----|----|----|----|6---|8---|----|


BRIDGE 1:
G|----|----|----|----|----|----|----|----|
D|----|----|----|8---|----|----|----|----|
A|6---|8---|9-10|----|6---|----|----|8---|
E|----|----|----|----|----|6---|8---|----|


VERSE 3:
G|----|----|----|----|----|----|----|----|
D|8---|7---|6---|----|----|----|----|8---|
A|----|----|----|6---|6---|----|--8-|----|
E|----|----|----|----|----|6---|8---|----|


INSTRUMENTAL:
G|----|----|----|----|----|----|----|----|
D|8---|7---|6---|----|----|----|----|8---|
A|----|----|----|6---|6---|----|--8-|----|
E|----|----|----|----|----|6---|8---|----|


BRIDGE 2:
G|----|----|----|----|----|----|----|----|
D|----|----|----|8---|----|----|----|----|
A|6---|8---|9-10|----|6---|----|----|8---|
E|----|----|----|----|----|6---|8---|----|


VERSE 4:
G|----|----|----|----|----|----|----|----|
D|8---|7---|6---|----|----|----|----|8---|
A|----|----|----|6---|6---|----|--8-|----|
E|----|----|----|----|----|6---|8---|----|

END:
G|----|----|
D|----|8---|
A|--8-|----|
E|8---|----|

Other versions of Make You Feel My Love

Make you feel my loveBass tabs

Almost there ...

Sign in to get your own page with links to favourite songs and more. You are just one click away...

Login with Facebook Login with Google