Guitar Tabs Explorer
Adele bass tabs for Hello

Hello bass tab


4.6 / 5 [10 votes]

Hello bass tab by Adele

Bass tabs

Print
Intro/Verse
G|---------|
D|---------|
A|-8---6-4-|
E|---4-----|



Pre Chorus (There’s such a difference)

G|---------|--------|
D|---------|--------|
A|-8-6-3-4-|-8-6-4~-|
E|---------|--------|



Chorus (Hello from the other side)

G|---------|
D|---------|
A|---4---6-|
E|-1---4---|



Middle 8 (Apart anymore, oooohhh, anymore)

        (x4)
G|----------|---------|
D|----------|---------|
A|---4--6---|---4--6~-|
E|-1------4-|-1-------|



End

G|------------|
D|------------|
A|-8---6-4----|
E|---4-----1~-|

Comment this song and these bass tabs

Do you have corrections, comments on the bass tabs, thoughts about the song or a message to the author? Write them below.