Log in

One click and you are in

Login with Facebook Login with Google

Why sign up and log in

Guitar Tabs Explorer
Adele bass tabs for Easy on me

Bass tabs

Key: F


Tuning: Standard (EADG)
Intro - no bass
First verse - no bass
Bass comes in on first chorus

1st Chorus "Go easy on me
Baby"

G|---------------|---------------|---------------|---------------|
D|---------------|---------------|---------------|---------------|
A|--------------5|3-----------3-0|---------------|0--1----------1|
E|1--------------|---------------|3-------------3|---------------|

G|---------------|---------------|---------------|--------------3|
D|---------------|---------------|---------------|---------------|
A|--------------5|3-----------3-0|---------------|0--1-----------|
E|1--------------|---------------|3----------x3-3|---------------|

G|---10-------10-|---7-----------|---------------|---------------|
D|---------------|---------------|---(7)---------|----(8)--------|
A|8-----8-8-8---8|5------5-5-5-5-|---------------|---------------|
E|---------------|---------------|5-5-5----5--5-5|6----6---------|


2nd Verse “There ain’t no room for things to change”


G|---------------|---------------|-----5----5----|------(3)------|
D|---------------|---------------|---------------|---------------|
A|---------------|5---------0h5-5|3--3----3---3-3|1------1-------|
E|1---------0h1-1|---------------|---------------|---------------|

G|---------------|-----7---------|------5----5---|----(3)--(3)---|
D|---------------|---------------|---------------|---------------|
A|---------------|5-----0h5------|----3----3--3-3|1----1----1----|
E|1---------0h1-1|-------------x0|23-------------|---------------|

G|---------------|---------------|---------------|---------------|
D|1/8------------|---------------|---------------|---------------|
A|---------------|---------------|---------------|---------------|
E|---------------|---------------|---------------|---------------|

(slide from 1st fret to 8th fret on D string and hold at end “I give up”)

2nd Chorus "Go easy on me
Baby"

(similar to before but more notes played now as song builds with some variation/octaves etc)

G|---------------|---------------|---------------|-------3h5-3---|
D|---------------|---------------|----5----------|---------------|
A|--------------5|3-------0h3-3-0|---------------|0--1-----------|
E|1------0h1-1---|---------------|3------0h3--3--|---------------|

G|---------------|---------------|---------------|-------3h5-3---|
D|---------------|---------------|---------------|---------------|
A|--------------5|3-------0h3-3-0|---------------|0--1-----------|
E|1------0h1-1---|---------------|3------0h3--3--|---------------|

Bridge Intro "Go ea, ea, ea, easy on me"

G|---------------|---------------|---------------|---------------|
D|---------------|---------------|---------------|---------------|
A|--------------3|5-5-5-5-5-5-5-5|0-0-0-0-0-0-0-0|1-1-1-1-----1-1|
E|1-1-1-1-1-1-1--|---------------|---------------|---------------|


Bridge "I had good intentions"

G|---------------|---------------|---------------|---------------|
D|---------------|---------------|---------------|---------------|
A|---------------|5------0h5-5---|3-3-3-3-----3-3|1-1-1-1-----1-1|
E|1------0h1-1---|---------------|---------------|---------------|

G|---------------|---------------|---------------|---------------|
D|---------------|---------------|---------------|---------------|
A|1-1-1-1-1-1---3|---------------|---------------|---------------|
E|---------------|---------------|---------------|---------------|

3rd Chorus "Go easy on me
Baby"

G|---------------|---------------|---------------|-----1h3-------|
D|---------------|---------------|---------------|---------------|
A|--------------5|3-------0h3-3-0|---------------|0--1------1--1-|
E|1------0h1-1---|---------------|3------0h3--3--|---------------|

G|---------------|---------------|---------------|---------------|
D|---------------|---------------|---------------|---------------|
A|--------------5|3-------0h3-3-0|---------------|0--1------1-1--|
E|1------0h1-1---|---------------|3------0h3--3--|---------------|


Ending "So go easy on me"

G|---------------|---------------|---------------|---------------|
D|---------------|---------------|7--------------|8--------------|
A|---------------|5--------------|---------------|---------------|
E|1--------------|---------------|---------------|---------------|

| / slide up
| h hammer-on
| x Mute note
|(n) ghost note

Almost there ...

Sign in to get your own page with links to favourite songs and more. You are just one click away...

Login with Facebook Login with Google