Guitar Tabs Explorer
Adele bass tabs for Crazy for you

Crazy For You bass tab


Be the first to rate

Crazy For You bass tab by Adele

Bass tabs

Print

Hope you guys like it!

Essentially repeating G, Em, C, & D chords.

Intro

G|-------7-------9--7---------7-------9--7---|
D|-----9---9---9------9-----9---9---9-----9--|
A|--10-------7-----------10-------7----------|
E|-------------------------------------------|

G|--------14-----------14-------------14-------------|
D|-----14----14----14-----14------16-----16----------|
A|--15----------15-------------17------------17--15--|
E|---------------------------------------------------|

Verse

G|-------7-------9--7---------7-------9--7---|
D|-----9---9---9------9-----9---9---9-----9--|
A|--10-------7-----------10-------7----------|
E|-------------------------------------------|

G|--------14-----------14-------------14-------------|
D|-----14----14----14-----14------16-----16----------|
A|--15----------15-------------17------------17--15--|
E|---------------------------------------------------|

G|-------7-------9--7---------7-------9--7---|
D|-----9---9---9------9-----9---9---9-----9--|
A|--10-------7-----------10-------7----------|
E|-------------------------------------------|  x2

G|--------14-----------14-------------14-------------|
D|-----14----14----14-----14------16-----16----------|
A|--15----------15-------------17------------17--15--|
E|---------------------------------------------------|

When she sings the bridge:
"Tell me to run and I'll race if you want me to stop I'll freeze
And if you and me gonna leave just hold me closer baby"

   B Flat    C       G        A
G|--------|-------|--------|---------|
D|--------|-10----|--------|---------|
A|--13----|-------|--10----|---12----|
E|--------|-------|--------|---------|

Comment this song and these bass tabs

Do you have corrections, comments on the bass tabs, thoughts about the song or a message to the author? Write them below.