Guitar Tabs Explorer
Adele guitar tabs for Chasing pavements

Chasing Pavements tab


3.7 / 5 [3 votes]

Chasing Pavements tab by Adele

Guitar tabs

Print
Chasing Pavements - Adele
-------------------------------------------------------------------------------
Tabbed by: jocelyn
Album name: 19

Listen to (http://www.youtube.com/watch?v=7e0vccod0ac&feature=BF&list=QL&index=1)
for the strumming pattern.

Tuning: Standard

e|-3-------------|-3------------------------------------------6----------6--|
B|-4--4------3---|-4--4------3--------------------------------6-----8---4---|
G|-5---5---------|-5---5------3------5------4------5----------7----7--------|
D|-5-5------5----|-5-5------5-------3-3----3-3----3-3---------8---8----5---5|
A|-3-------------|-3------------------------------------------8--6----3----5|
E|-3------6------|-3-------6-------4-----3------4-------4/6~--6------------3|
  (intro--------)


Verse
e|----x----------x-------3~-x-3-3-----x-------4--6--------------------------|
B|-8~-x-8-8---8~-x-8-8—--4~-x-4-4-----x-------4--6--------------------------|
G|-7~-x-7-7---7~-x-7-7—--5~-x-5-5-----x-------5--7--------------------------|
D|-8~-x-8-8---8~-x-8-8---5~-x-5-5—-5~-x-5-5---6--8--------------------------|
A|-6~-x-6-6---5~-x-5-5---3~-x-3-3—-5~-x-5-5---6--8--------------------------|
E|----x----------x----------x----—-3~-x-3-3---4--6--------------------------|


Chorus
e|-4-----3-----------------------4-----3-------------3----------------------|
B|-4-----4-----------------------4-----4----------4--3---4----4------------8|
G|-5-----5------------4--3--4----5-----5----------5--4---5----5------------7|
D|-6--5--5---3--5-6---6--5--5----6--5--5--3--5-6--5--5---6--5-5--3--5-6--5-8|
A|-6--5--3---3--5-6---6--5--5----6--5--3--3--5-6--6--5------5-3--3--5-6--5-6|
E|-4--3------1--3-4---4--3--3----4--3-----1--3-4--4--3---4--3----1--3-4--3--|


Verse 2
e|-3-----4--3---------------------------------------------------------------|
B|-4--3--4--3--4--6---------------------------------------------------------|
G|-5--3--5--3--5--7---------------------------------------------------------|
D|-5--5--6--5--6--8---------------------------------------------------------|
A|-3-----6--5--6--8---------------------------------------------------------|
E|-3--6--4--3--4--6---------------------------------------------------------|

Repeat Chorus

Bridge
e|-3--3--1--6--3---3--1---------4--3-3-1--4---4--3-3-1--4---4--6------------|
B|-4--3--1--6--4---3--1--6--6---4--3-4-1--4---4--3-4-1--4---4--6------------|
G|-5--3--1--7--5---3--1--8--7---5--3-5-1--5---5--4-5-1--5---5--7------------|
D|-5--5--3--8--5---5--3--8--8---6--5-5-3--6---6--5-5-3--6---6--8------------|
A|-3--5--3--8--3---5--3--8--8---6--5-3-3--6---6--5-3-3--6---6--8------------|
E|----3--1--6------3--1--6--6---4--3---1--4---4--3---1--4---4--6------------|

Repeat chorus

Other versions of Chasing Pavements

Chasing pavementsChords
Chasing pavements (Ver. 2)Chords
Chasing pavements (Ver. 3)Chords

Comment this song and these guitar tabs

Do you have corrections, comments on the guitar tabs, thoughts about the song or a message to the author? Write them below.