Search tabs and chords

Search for song, artist or band

Log in

One click and you are in

Login with Facebook Login with Google

Why sign up and log in

Guitar Tabs Explorer
Adele bass tabs for Best for last (Ver. 2)

Bass tabs with lyrics

-------------------------------------------------------------------------------
                             Adele-Best for last
------------------------------------------------------------------------------
Tuning: Standard

  INTRO:

G|------------------------------------------------|
D|-4-----5-----4----2--0-----4-----5-----7----9\--|
A|-5-----7-----5----3-----0--5-----7-----9----10\-|
E|------------------------------------------------|

  VERSE Nº1:

G|-------------------------------------------|
D|-4-------5--------4--------2-----2---3-----| x4
A|-5-------7--------5--------3---------------|
E|-------------------------------------------|

  PRE-CHORUS:

G|------------------------------------------------------------|
A|----4-4-4---0---5-5-5---0---7-7-7---0----9-9-9----0---------| x3
D|--5-------5---7-------7---9-------9---10-------10-----------|
E|------------------------------------------------------------|

G|------------------------------------------|
D|----4-4-4---0---5-5-5---0-----7-----9\4---|
A|--5-------4---7-------7---9------10-------|
E|------------------------------------------|

  CHORUS:

G|-------------------------------------|  \
D|----4---0---5---0---7---0----9----0--|   \
A|--5---5---7---7---9---9---10---10----|    \
E|-------------------------------------|     \
                                              x2
G|-------------------------------|           /
D|----4---0---5---0-----7------9-|          /
A|--5---5---7---7---9------10----|         /
E|-------------------------------|        /

  INSTRUMENTAL:

G|---------------------------------------|
D|----4---0---5---0---7---0----9----9----|
A|--5---5---7---7---9---9---10---10------|
E|---------------------------------------|

G|--------------------------------------|
D|----4---0---5---0---7---0--9---7---5--|
A|--5---5---7---7---9---9---10---9---7--|
E|--------------------------------------|

  VERSE Nº2:

G|--------------------------------------------------|
D|-4-------5---------4---------2--------2---3-------| x2
A|-5-------7---------5---------3--------------------|
E|--------------------------------------------------|

G|-------------------------------------|
D|-4-------5----------4x---------------|
A|-5-------7----------5x------3x--2x---|
E|-------------------------------------|

G|-----------------------------------------|
D|-4x------5----------4x-------2-----------|
A|-5x------7----------5x-------3----2--3---|
E|-----------------------------------------|

G|--------------------------------------------------|
D|-4-------5---------4---------2--------2---3-------| x3
A|-5-------7---------5---------3--------------------|
E|--------------------------------------------------|

  PRE-CHORUS

  CHORUS

  INSTRUMENTAL

  BRIDGE:

G|--------------------------------------------------|
D|-4-------5---------4---------2--------2---3-------| x2
A|-5-------7---------5---------3--------------------|
E|--------------------------------------------------|

G|-------------------------------|
D|----4---0---5---0---7---0------|
A|--5---5---7---7---9---9---3-2--|
E|-------------------------------|

G|-------------------------------|
D|----4---0---5---0--------------| x2
A|--5---5---7---7---9-------3-2--|
E|-------------------------------|

  PRE-CHORUS Nº2:

G|---------------------|
D|--4----5----7----9---| x4
A|--5----7----9----10--|
E|---------------------|

  INSTRUMENTAL Nº2:

G|-------------------------------------|
D|----4---0---5---0---7---0----9----0--| x3
A|--5---5---7---7---9---9---10---10----|
E|-------------------------------------|

G|-----------------------------------------|
D|----4---0---5---0---7---0--9---7---5---4-|
A|--5---5---7---7---9---9---10---9---7---5-|
E|-----------------------------------------|

| /  slide up
| \  slide down
| h  hammer-on
| p  pull-off
| ~  vibrato
| +  harmonic
| x  Mute note

 Lyrics:

VERSE 1
Wait, do you see my heart on my sleeve?
It's been there for days on end and
It's been waiting for you to open up
Yours too baby, come on now
I'm trying to tell you just how
I'd like to hear the words roll out of your mouth finally
Say that it's always been me

PRE-CHORUS
That's made you feel a way you've never felt before
And I'm all you need and that you never want more
Then you'd say all of the right things without a clue
But you'd save the best for last
Like I'm the one for you

CHORUS
You should know that you're just a temporary fix
This is not rooted with you it don't mean that much to me
You're just a filler in the space that happened to be free
How dare you think you'd get away with trying to play me?
Yeah

VERSE 2
Why is it every time I think I've tried my hardest
It turns out it ain't enough?
You're still not mentioning love
What am I supposed to do to make you want me properly?
I'm taking these chances and getting nowhere
And though I'm trying my hardest you go back to her
And I think that I know things may never change
I'm still hoping one day I might hear you say

PRE CHORUS
I make you feel a way you've never felt before
And I'm all you need and that you never want more
Then you'd say all of the right things without a clue
But you'd save the best for last
Like I'm the one for you

CHORUS
You should know that you're just a temporary fix
This is not rooted with you it don't mean that much to me
You're just a filler in the space that happened to be free
How dare you think you'd get away with trying to play me

BRIDGE
But, despite the truth that I know
I find it hard to let go and give up on you
Seems I love the things you do
Like the meaner you treat me more eager I am
To persist with this heartbreak of running around
And I will do until I find myself with you and

PRE-CHORUS 2
Make you feel a way you've never felt before
And be all you need so that you'll never want more
Then you'd say all of the right things without a clue

Other versions of Best For Last

Best for lastBass tabs

Almost there ...

Sign in to get your own page with links to favourite songs and more. You are just one click away...

Login with Facebook Login with Google