Log in

One click and you are in

Login with Facebook Login with Google

Why sign up and log in

Guitar Tabs Explorer
Ryan Adams tabs for You will always be the same

You Will Always Be The Same tab by Ryan Adams

Ryan Adams tabs for You will always be the same

Guitar tabs with lyrics

artist : ryan adams
song : you will always be the same
album : demolition
transcibed by : huby (huby@sorgho.be)
date : june 03, 2004

**********************
notes :

this is just one way to play the song. it's not 100% accurate, but it will give you a good idea of how it's played. i've seen the dvd 'live in jamaica' and it looks like i'm pretty close, but not quite there. this is all just MY interpretaion. feel free to send corrections and suggestions.

it's very ryan-ish, with his thumb playing the A chord diagramE MajorE string, and his other fingers doing the rest. keep in mind that the thumb plays 8th notes, but i've spaced it out so it's more readable.

have fun !

**********************
chords :
A chord diagramE MajorE     : 022100
F#min : 2x2200
G#min : 4x4400
A chord diagramA augmentedA     : 577655
A chord diagramBB     : 799877


**********************

main riff :

 A chord diagramE MajorE                                 F#min
e|----------------|------0---------|----------------|2-0-------------|
b|----------------|----------------|------0---------|----0---------0-|
g|------1---------|1-2-------2-----|--2-------2-----|------2---2-----|
A chord diagramD MajorD|--2-------2---2-|--------------2-|----------------|----------------|
A chord diagramA augmentedA|----------------|----------------|----------------|----------------|
A chord diagramE MajorE|0---0---0---0---|----0---0---0---|2---2---2---2---|2-------2---2---|


verse : "go on, to the streets ..."
 F#min                             F#min
e|--------------0-|----------------|--------------0-|----------------|
b|------0---------|------0---------|------0---------|------0---------|
g|--2-------2-----|--2-------2---2-|--2-------2-----|--2-------2---2-|
A chord diagramD MajorD|----------------|----------------|----------------|----------------|
A chord diagramA augmentedA|----------------|----------------|----------------|----------------|
A chord diagramE MajorE|2---2---2---2---|2---2---2---2---|2---2---2---2---|2---2---2---2---|

 A chord diagramE MajorE                                 A chord diagramE MajorE
e|----------------|------0---------|----------------|2-0-------------|
b|----------------|----------------|------0---------|----0---------0-|
g|------1---------|1-2-------2-----|--2-------2-----|------2---2-----|
A chord diagramD MajorD|--2-------2---2-|--------------2-|----------------|----------------|
A chord diagramA augmentedA|----------------|----------------|----------------|----------------|
A chord diagramE MajorE|0---0---0---0---|----0---0---0---|0---0---0---0---|0-------0---0---|


 transition :"and when the"
e|----------------|
b|----------------|
g|----------------|
A chord diagramD MajorD|----------------|
A chord diagramA augmentedA|----------------|
A chord diagramE MajorE|----0---2---4---|


chorus :"son meets the father ..."
 A chord diagramA augmentedA                G#min            F#min            A chord diagramE MajorE
e|----------------|----------------|----------------|----------------|
b|----------------|----------------|----------------|----------------|
g|------6---------|------4---------|------2---------|------1---------|
A chord diagramD MajorD|--7-------7---7-|--4-------4---4-|--2-------2---2-|--2-------2---2-|
A chord diagramA augmentedA|----------------|----------------|----------------|----------------|
A chord diagramE MajorE|5---5---5---5---|4---4---4---4---|2---2---2---2---|0---0---0---0---|

 A chord diagramBB                A chord diagramA augmentedA                G#min            F#min
e|----------------|----------------|----------------|----------------|
b|----------------|----------------|----------------|----------------|
g|------8---------|------6---------|------4---------|------2---------|
A chord diagramD MajorD|--9-------9---9-|--7-------7---7-|--4-------4---4-|--2-------2---2-|
A chord diagramA augmentedA|----------------|----------------|----------------|----------------|
A chord diagramE MajorE|7---7---7---7---|5---5---5---5---|4---4---4---4---|2---2---2---2---|

and back to the main riff : "you will always be the same"


variation : before the last verse, he does a little transition which resembles the end, using the same strumming as above : E, F#min, G#min, F#min, A chord diagramE MajorE

the end : still strumming : E, F#min, G#min and then full chord : A, B, E.

Almost there ...

Sign in to get your own page with links to favourite songs and more. You are just one click away...

Login with Facebook Login with Google